  0
SECTION
  2
HEADER
  9
$ACADVER
  1
AC1015
  9
$ACADMAINTVER
 70
     6
  9
$DWGCODEPAGE
  3
ANSI_1254
  9
$INSBASE
 10
0.0
 20
0.0
 30
0.0
  9
$EXTMIN
 10
0.0
 20
0.0
 30
0.0
  9
$EXTMAX
 10
279.4
 20
215.9
 30
0.0
  9
$LIMMIN
 10
0.0
 20
0.0
  9
$LIMMAX
 10
279.4
 20
215.9
  9
$ORTHOMODE
 70
     0
  9
$REGENMODE
 70
     1
  9
$FILLMODE
 70
     1
  9
$QTEXTMODE
 70
     0
  9
$MIRRTEXT
 70
     1
  9
$LTSCALE
 40
1.0
  9
$ATTMODE
 70
     1
  9
$TEXTSIZE
 40
3.5
  9
$TRACEWID
 40
1.0
  9
$TEXTSTYLE
  7
Standard
  9
$CLAYER
  8
0
  9
$CELTYPE
  6
ByLayer
  9
$CECOLOR
 62
   256
  9
$CELTSCALE
 40
1.0
  9
$DISPSILH
 70
     0
  9
$DIMSCALE
 40
1.0
  9
$DIMASZ
 40
3.5
  9
$DIMEXO
 40
1.0
  9
$DIMDLI
 40
3.75
  9
$DIMRND
 40
0.0
  9
$DIMDLE
 40
0.0
  9
$DIMEXE
 40
1.0
  9
$DIMTP
 40
0.0
  9
$DIMTM
 40
0.0
  9
$DIMTXT
 40
3.5
  9
$DIMCEN
 40
2.5
  9
$DIMTSZ
 40
0.0
  9
$DIMTOL
 70
     0
  9
$DIMLIM
 70
     0
  9
$DIMTIH
 70
     1
  9
$DIMTOH
 70
     1
  9
$DIMSE1
 70
     0
  9
$DIMSE2
 70
     0
  9
$DIMTAD
 70
     1
  9
$DIMZIN
 70
     0
  9
$DIMBLK
  1

  9
$DIMASO
 70
     1
  9
$DIMSHO
 70
     1
  9
$DIMPOST
  1

  9
$DIMAPOST
  1

  9
$DIMALT
 70
     0
  9
$DIMALTD
 70
     3
  9
$DIMALTF
 40
0.0393700787
  9
$DIMLFAC
 40
1.0
  9
$DIMTOFL
 70
     1
  9
$DIMTVP
 40
0.0
  9
$DIMTIX
 70
     0
  9
$DIMSOXD
 70
     0
  9
$DIMSAH
 70
     0
  9
$DIMBLK1
  1

  9
$DIMBLK2
  1

  9
$DIMSTYLE
  2
ISO-25
  9
$DIMCLRD
 70
     0
  9
$DIMCLRE
 70
     0
  9
$DIMCLRT
 70
     0
  9
$DIMTFAC
 40
1.0
  9
$DIMGAP
 40
1.524
  9
$DIMJUST
 70
     0
  9
$DIMSD1
 70
     0
  9
$DIMSD2
 70
     0
  9
$DIMTOLJ
 70
     0
  9
$DIMTZIN
 70
     0
  9
$DIMALTZ
 70
     0
  9
$DIMALTTZ
 70
     0
  9
$DIMUPT
 70
     0
  9
$DIMDEC
 70
     2
  9
$DIMTDEC
 70
     2
  9
$DIMALTU
 70
     2
  9
$DIMALTTD
 70
     3
  9
$DIMTXSTY
  7
Standard
  9
$DIMAUNIT
 70
     0
  9
$DIMADEC
 70
     2
  9
$DIMALTRND
 40
0.0
  9
$DIMAZIN
 70
     0
  9
$DIMDSEP
 70
    44
  9
$DIMATFIT
 70
     3
  9
$DIMFRAC
 70
     0
  9
$DIMLDRBLK
  1

  9
$DIMLUNIT
 70
     2
  9
$DIMLWD
 70
    -2
  9
$DIMLWE
 70
    -2
  9
$DIMTMOVE
 70
     0
  9
$LUNITS
 70
     2
  9
$LUPREC
 70
     2
  9
$SKETCHINC
 40
1.0
  9
$FILLETRAD
 40
10.0
  9
$AUNITS
 70
     0
  9
$AUPREC
 70
     2
  9
$MENU
  1
.
  9
$ELEVATION
 40
0.0
  9
$PELEVATION
 40
0.0
  9
$THICKNESS
 40
0.0
  9
$LIMCHECK
 70
     0
  9
$CHAMFERA
 40
0.0
  9
$CHAMFERB
 40
0.0
  9
$CHAMFERC
 40
0.0
  9
$CHAMFERD
 40
0.0
  9
$SKPOLY
 70
     0
  9
$TDCREATE
 40
2458985.711367188
  9
$TDUCREATE
 40
2458985.586367188
  9
$TDUPDATE
 40
2458985.711367558
  9
$TDUUPDATE
 40
2458985.586367558
  9
$TDINDWG
 40
0.0000000116
  9
$TDUSRTIMER
 40
0.0000000116
  9
$USRTIMER
 70
     1
  9
$ANGBASE
 50
0.0
  9
$ANGDIR
 70
     0
  9
$PDMODE
 70
     0
  9
$PDSIZE
 40
-1.0
  9
$PLINEWID
 40
0.0
  9
$SPLFRAME
 70
     0
  9
$SPLINETYPE
 70
     6
  9
$SPLINESEGS
 70
     8
  9
$HANDSEED
  5
10A
  9
$SURFTAB1
 70
     6
  9
$SURFTAB2
 70
     6
  9
$SURFTYPE
 70
     6
  9
$SURFU
 70
     6
  9
$SURFV
 70
     6
  9
$UCSBASE
  2

  9
$UCSNAME
  2

  9
$UCSORG
 10
0.0
 20
0.0
 30
0.0
  9
$UCSXDIR
 10
1.0
 20
0.0
 30
0.0
  9
$UCSYDIR
 10
0.0
 20
1.0
 30
0.0
  9
$UCSORTHOREF
  2

  9
$UCSORTHOVIEW
 70
     0
  9
$UCSORGTOP
 10
0.0
 20
0.0
 30
0.0
  9
$UCSORGBOTTOM
 10
0.0
 20
0.0
 30
0.0
  9
$UCSORGLEFT
 10
0.0
 20
0.0
 30
0.0
  9
$UCSORGRIGHT
 10
0.0
 20
0.0
 30
0.0
  9
$UCSORGFRONT
 10
0.0
 20
0.0
 30
0.0
  9
$UCSORGBACK
 10
0.0
 20
0.0
 30
0.0
  9
$PUCSBASE
  2

  9
$PUCSNAME
  2

  9
$PUCSORG
 10
0.0
 20
0.0
 30
0.0
  9
$PUCSXDIR
 10
1.0
 20
0.0
 30
0.0
  9
$PUCSYDIR
 10
0.0
 20
1.0
 30
0.0
  9
$PUCSORTHOREF
  2

  9
$PUCSORTHOVIEW
 70
     0
  9
$PUCSORGTOP
 10
0.0
 20
0.0
 30
0.0
  9
$PUCSORGBOTTOM
 10
0.0
 20
0.0
 30
0.0
  9
$PUCSORGLEFT
 10
0.0
 20
0.0
 30
0.0
  9
$PUCSORGRIGHT
 10
0.0
 20
0.0
 30
0.0
  9
$PUCSORGFRONT
 10
0.0
 20
0.0
 30
0.0
  9
$PUCSORGBACK
 10
0.0
 20
0.0
 30
0.0
  9
$USERI1
 70
     0
  9
$USERI2
 70
     0
  9
$USERI3
 70
     0
  9
$USERI4
 70
     0
  9
$USERI5
 70
     0
  9
$USERR1
 40
0.0
  9
$USERR2
 40
0.0
  9
$USERR3
 40
0.0
  9
$USERR4
 40
0.0
  9
$USERR5
 40
0.0
  9
$WORLDVIEW
 70
     1
  9
$SHADEDGE
 70
     3
  9
$SHADEDIF
 70
    70
  9
$TILEMODE
 70
     1
  9
$MAXACTVP
 70
    64
  9
$PINSBASE
 10
0.0
 20
0.0
 30
0.0
  9
$PLIMCHECK
 70
     0
  9
$PEXTMIN
 10
1.0000000000E+20
 20
1.0000000000E+20
 30
1.0000000000E+20
  9
$PEXTMAX
 10
-1.0000000000E+20
 20
-1.0000000000E+20
 30
-1.0000000000E+20
  9
$PLIMMIN
 10
0.0
 20
0.0
  9
$PLIMMAX
 10
420.0
 20
297.0
  9
$UNITMODE
 70
     0
  9
$VISRETAIN
 70
     1
  9
$PLINEGEN
 70
     0
  9
$PSLTSCALE
 70
     1
  9
$TREEDEPTH
 70
  3020
  9
$CMLSTYLE
  2
Standard
  9
$CMLJUST
 70
     0
  9
$CMLSCALE
 40
20.0
  9
$PROXYGRAPHICS
 70
     1
  9
$MEASUREMENT
 70
     1
  9
$CELWEIGHT
370
    -1
  9
$ENDCAPS
280
     0
  9
$JOINSTYLE
280
     0
  9
$LWDISPLAY
290
     1
  9
$INSUNITS
 70
     4
  9
$HYPERLINKBASE
  1

  9
$STYLESHEET
  1

  9
$XEDIT
290
     1
  9
$CEPSNTYPE
380
     0
  9
$PSTYLEMODE
290
     1
  9
$FINGERPRINTGUID
  2
{fc3d3469-ef5e-444c-9146-6bf5ecf1ae2e}
  9
$VERSIONGUID
  2
{FAEB1C32-E019-11D5-929B-00C0DF256EC4}
  9
$EXTNAMES
290
     1
  9
$PSVPSCALE
 40
0.0
  9
$OLESTARTUP
290
     0
  0
ENDSEC
  0
SECTION
  2
CLASSES
  0
CLASS
  1
ACDBDICTIONARYWDFLT
  2
AcDbDictionaryWithDefault
  3
ObjectDBX Classes
 90
        0
280
     0
281
     0
  0
CLASS
  1
VISUALSTYLE
  2
AcDbVisualStyle
  3
ObjectDBX Classes
 90
     4095
280
     0
281
     0
  0
CLASS
  1
MATERIAL
  2
AcDbMaterial
  3
ObjectDBX Classes
 90
     1153
280
     0
281
     0
  0
CLASS
  1
SCALE
  2
AcDbScale
  3
ObjectDBX Classes
 90
     1153
280
     0
281
     0
  0
CLASS
  1
TABLESTYLE
  2
AcDbTableStyle
  3
ObjectDBX Classes
 90
     4095
280
     0
281
     0
  0
CLASS
  1
MLEADERSTYLE
  2
AcDbMLeaderStyle
  3
ACDB_MLEADERSTYLE_CLASS
 90
     4095
280
     0
281
     0
  0
CLASS
  1
SUN
  2
AcDbSun
  3
SCENEOE
 90
     1153
280
     0
281
     0
  0
CLASS
  1
ACDBPLACEHOLDER
  2
AcDbPlaceHolder
  3
ObjectDBX Classes
 90
        0
280
     0
281
     0
  0
CLASS
  1
LAYOUT
  2
AcDbLayout
  3
ObjectDBX Classes
 90
        0
280
     0
281
     0
  0
ENDSEC
  0
SECTION
  2
TABLES
  0
TABLE
  2
VPORT
  5
8
330
0
100
AcDbSymbolTable
 70
     1
  0
VPORT
  5
29
330
8
100
AcDbSymbolTableRecord
100
AcDbViewportTableRecord
  2
*Active
 70
     0
 10
0.0
 20
0.0
 11
1.0
 21
1.0
 12
139.7
 22
107.95
 13
0.0
 23
0.0
 14
10.0
 24
10.0
 15
10.0
 25
10.0
 16
0.0
 26
0.0
 36
1.0
 17
0.0
 27
0.0
 37
0.0
 40
215.9
 41
1.2941176471
 42
50.0
 43
0.0
 44
0.0
 50
0.0
 51
0.0
 71
     0
 72
  2000
 73
     1
 74
     3
 75
     0
 76
     0
 77
     0
 78
     0
281
     0
 65
     1
110
0.0
120
0.0
130
0.0
111
1.0
121
0.0
131
0.0
112
0.0
122
1.0
132
0.0
 79
     0
146
0.0
  0
ENDTAB
  0
TABLE
  2
LTYPE
  5
5
330
0
100
AcDbSymbolTable
 70
     6
  0
LTYPE
  5
14
330
5
100
AcDbSymbolTableRecord
100
AcDbLinetypeTableRecord
  2
ByBlock
 70
     0
  3

 72
    65
 73
     0
 40
0.0
  0
LTYPE
  5
15
330
5
100
AcDbSymbolTableRecord
100
AcDbLinetypeTableRecord
  2
ByLayer
 70
     0
  3

 72
    65
 73
     0
 40
0.0
  0
LTYPE
  5
16
330
5
100
AcDbSymbolTableRecord
100
AcDbLinetypeTableRecord
  2
Continuous
 70
     0
  3
Solid line
 72
    65
 73
     0
 40
0.0
  0
LTYPE
  5
6E
330
5
100
AcDbSymbolTableRecord
100
AcDbLinetypeTableRecord
  2
HIDDEN
 70
     0
  3
Hidden __ __ __ __ __ __ __ __ __ __ __ __ __ __
 72
    65
 73
     2
 40
1.905
 49
1.27
 74
     0
 49
-0.635
 74
     0
  0
LTYPE
  5
6F
330
5
100
AcDbSymbolTableRecord
100
AcDbLinetypeTableRecord
  2
PHANTOM
 70
     0
  3
Phantom ______  __  __  ______  __  __  ______
 72
    65
 73
     6
 40
12.7
 49
6.35
 74
     0
 49
-1.27
 74
     0
 49
1.27
 74
     0
 49
-1.27
 74
     0
 49
1.27
 74
     0
 49
-1.27
 74
     0
  0
LTYPE
  5
70
330
5
100
AcDbSymbolTableRecord
100
AcDbLinetypeTableRecord
  2
CENTER
 70
     0
  3
Center ____ _ ____ _ ____ _ ____ _ ____ _ ____
 72
    65
 73
     4
 40
10.16
 49
6.35
 74
     0
 49
-1.27
 74
     0
 49
1.27
 74
     0
 49
-1.27
 74
     0
  0
LTYPE
  5
71
330
5
100
AcDbSymbolTableRecord
100
AcDbLinetypeTableRecord
  2
CENTERX2
 70
     0
  3
Center (2x) ________  __  ________  __  _____
 72
    65
 73
     4
 40
20.32
 49
12.7
 74
     0
 49
-2.54
 74
     0
 49
2.54
 74
     0
 49
-2.54
 74
     0
  0
LTYPE
  5
72
330
5
100
AcDbSymbolTableRecord
100
AcDbLinetypeTableRecord
  2
DOT2
 70
     0
  3
Dot (.5x) ........................................
 72
    65
 73
     2
 40
0.635
 49
0.0
 74
     0
 49
-0.635
 74
     0
  0
ENDTAB
  0
TABLE
  2
LAYER
  5
2
330
0
100
AcDbSymbolTable
 70
    17
  0
LAYER
  5
10
330
2
100
AcDbSymbolTableRecord
100
AcDbLayerTableRecord
  2
0
 70
     0
 62
     7
  6
Continuous
370
    -3
390
F
  0
LAYER
  5
73
330
2
100
AcDbSymbolTableRecord
100
AcDbLayerTableRecord
  2
FORMAT
 70
     0
 62
     7
  6
Continuous
370
    -3
390
F
  0
LAYER
  5
74
330
2
100
AcDbSymbolTableRecord
100
AcDbLayerTableRecord
  2
YARDIMCI_GEOMETRI
 70
     0
 62
    -6
  6
Continuous
290
     0
370
    -3
390
F
  0
LAYER
  5
75
330
2
100
AcDbSymbolTableRecord
100
AcDbLayerTableRecord
  2
SAYFA_CERCEVESI
 70
     0
 62
     7
  6
Continuous
370
    25
390
F
  0
LAYER
  5
76
330
2
100
AcDbSymbolTableRecord
100
AcDbLayerTableRecord
  2
ANTET
 70
     0
 62
     7
  6
Continuous
370
    -3
390
F
  0
LAYER
  5
77
330
2
100
AcDbSymbolTableRecord
100
AcDbLayerTableRecord
  2
OLCU
 70
     0
 62
   150
  6
Continuous
370
    -3
390
F
  0
LAYER
  5
78
330
2
100
AcDbSymbolTableRecord
100
AcDbLayerTableRecord
  2
METIN
 70
     0
 62
    96
  6
Continuous
370
    -3
390
F
  0
LAYER
  5
79
330
2
100
AcDbSymbolTableRecord
100
AcDbLayerTableRecord
  2
BALON
 70
     0
 62
     5
  6
Continuous
370
    -3
390
F
  0
LAYER
  5
7A
330
2
100
AcDbSymbolTableRecord
100
AcDbLayerTableRecord
  2
VURGU
 70
     0
 62
     7
  6
Continuous
370
    -3
390
F
  0
LAYER
  5
7B
330
2
100
AcDbSymbolTableRecord
100
AcDbLayerTableRecord
  2
SILIK
 70
     0
 62
     7
  6
Continuous
370
    -3
390
F
  0
LAYER
  5
7C
330
2
100
AcDbSymbolTableRecord
100
AcDbLayerTableRecord
  2
MODEL
 70
     0
 62
     7
  6
Continuous
370
    -3
390
F
  0
LAYER
  5
7D
330
2
100
AcDbSymbolTableRecord
100
AcDbLayerTableRecord
  2
DETAYLANDıRMA
 70
     0
 62
   190
  6
Continuous
370
    -3
390
F
  0
LAYER
  5
7E
330
2
100
AcDbSymbolTableRecord
100
AcDbLayerTableRecord
  2
TOLERANS
 70
     0
 62
   230
  6
Continuous
370
    -3
390
F
  0
LAYER
  5
7F
330
2
100
AcDbSymbolTableRecord
100
AcDbLayerTableRecord
  2
MERKEZ_CIZGILERI
 70
     0
 62
    30
  6
Continuous
370
    -3
390
F
  0
LAYER
  5
80
330
2
100
AcDbSymbolTableRecord
100
AcDbLayerTableRecord
  2
KESIT-DETAY_CIZGILERI
 70
     0
 62
     7
  6
Continuous
370
    -3
390
F
  0
LAYER
  5
81
330
2
100
AcDbSymbolTableRecord
100
AcDbLayerTableRecord
  2
\U+041E\U+0421\U+0415\U+0412\U+042B\U+0415
 70
     0
 62
     7
  6
Continuous
370
    -3
390
F
  0
LAYER
  5
82
330
2
100
AcDbSymbolTableRecord
100
AcDbLayerTableRecord
  2
\U+0412\U+041E\U+0414\U+042F\U+041D\U+042B\U+0415_\U+0417\U+041D\U+0410\U+041A\U+0418
 70
     0
 62
    11
  6
Continuous
370
    -3
390
F
  0
ENDTAB
  0
TABLE
  2
STYLE
  5
3
330
0
100
AcDbSymbolTable
 70
     1
  0
STYLE
  5
11
330
3
100
AcDbSymbolTableRecord
100
AcDbTextStyleTableRecord
  2
Standard
 70
     0
 40
0.0
 41
1.0
 50
0.0
 71
     0
 42
3.5
  3
txt
  4

  0
ENDTAB
  0
TABLE
  2
VIEW
  5
6
330
0
100
AcDbSymbolTable
 70
     0
  0
ENDTAB
  0
TABLE
  2
UCS
  5
7
330
0
100
AcDbSymbolTable
 70
     0
  0
ENDTAB
  0
TABLE
  2
APPID
  5
9
330
0
100
AcDbSymbolTable
 70
     1
  0
APPID
  5
12
330
9
100
AcDbSymbolTableRecord
100
AcDbRegAppTableRecord
  2
ACAD
 70
     0
  0
ENDTAB
  0
TABLE
  2
DIMSTYLE
  5
A
330
0
100
AcDbSymbolTable
 70
     1
100
AcDbDimStyleTable
  0
DIMSTYLE
105
27
330
A
100
AcDbSymbolTableRecord
100
AcDbDimStyleTableRecord
  2
ISO-25
 70
     0
 41
2.5
 42
0.625
 43
3.75
 44
1.25
 73
     0
 74
     0
 77
     1
 78
     8
140
2.5
141
2.5
143
0.0393700787
147
0.625
171
     3
172
     1
178
     0
271
     2
272
     2
274
     3
278
    44
283
     0
284
     8
340
11
  0
ENDTAB
  0
TABLE
  2
BLOCK_RECORD
  5
1
330
0
100
AcDbSymbolTable
 70
     2
  0
BLOCK_RECORD
  5
1F
330
1
100
AcDbSymbolTableRecord
100
AcDbBlockTableRecord
  2
*Model_Space
340
22
  0
BLOCK_RECORD
  5
1B
330
1
100
AcDbSymbolTableRecord
100
AcDbBlockTableRecord
  2
*Paper_Space
340
1E
  0
BLOCK_RECORD
  5
23
330
1
100
AcDbSymbolTableRecord
100
AcDbBlockTableRecord
  2
*Paper_Space0
340
26
  0
BLOCK_RECORD
  5
88
330
1
100
AcDbSymbolTableRecord
100
AcDbBlockTableRecord
  2
SW_CENTERMARKSYMBOL_0
340
0
102
{BLKREFS
331
93
102
}
  0
ENDTAB
  0
ENDSEC
  0
SECTION
  2
BLOCKS
  0
BLOCK
  5
20
330
1F
100
AcDbEntity
  8
0
100
AcDbBlockBegin
  2
*Model_Space
 70
     0
 10
0.0
 20
0.0
 30
0.0
  3
*Model_Space
  1

  0
ENDBLK
  5
21
330
1F
100
AcDbEntity
  8
0
100
AcDbBlockEnd
  0
BLOCK
  5
1C
330
1B
100
AcDbEntity
 67
     1
  8
0
100
AcDbBlockBegin
  2
*Paper_Space
 70
     0
 10
0.0
 20
0.0
 30
0.0
  3
*Paper_Space
  1

  0
ENDBLK
  5
1D
330
1B
100
AcDbEntity
 67
     1
  8
0
100
AcDbBlockEnd
  0
BLOCK
  5
24
330
23
100
AcDbEntity
  8
0
100
AcDbBlockBegin
  2
*Paper_Space0
 70
     0
 10
0.0
 20
0.0
 30
0.0
  3
*Paper_Space0
  1

  0
ENDBLK
  5
25
330
23
100
AcDbEntity
  8
0
100
AcDbBlockEnd
  0
BLOCK
  5
89
330
88
100
AcDbEntity
  8
0
100
AcDbBlockBegin
  2
SW_CENTERMARKSYMBOL_0
 70
     0
 10
0.0
 20
0.0
 30
0.0
  3
SW_CENTERMARKSYMBOL_0
  1

  0
LINE
  5
8B
330
88
100
AcDbEntity
  8
FORMAT
 62
     0
100
AcDbLine
 10
0.0
 20
0.0
 30
0.0
 11
0.0
 21
2.5
 31
0.0
  0
LINE
  5
8C
330
88
100
AcDbEntity
  8
FORMAT
 62
     0
100
AcDbLine
 10
0.0
 20
0.0
 30
0.0
 11
-2.5
 21
0.0
 31
0.0
  0
LINE
  5
8D
330
88
100
AcDbEntity
  8
FORMAT
 62
     0
100
AcDbLine
 10
0.0
 20
0.0
 30
0.0
 11
0.0
 21
-2.5
 31
0.0
  0
LINE
  5
8E
330
88
100
AcDbEntity
  8
FORMAT
 62
     0
100
AcDbLine
 10
0.0
 20
0.0
 30
0.0
 11
2.5
 21
0.0
 31
0.0
  0
LINE
  5
8F
330
88
100
AcDbEntity
  8
FORMAT
 62
     0
100
AcDbLine
 10
0.0
 20
5.0
 30
0.0
 11
0.0
 21
160.0
 31
0.0
  0
LINE
  5
90
330
88
100
AcDbEntity
  8
FORMAT
 62
     0
100
AcDbLine
 10
-5.0
 20
0.0
 30
0.0
 11
-160.0
 21
0.0
 31
0.0
  0
LINE
  5
91
330
88
100
AcDbEntity
  8
FORMAT
 62
     0
100
AcDbLine
 10
0.0
 20
-5.0
 30
0.0
 11
0.0
 21
-160.0
 31
0.0
  0
LINE
  5
92
330
88
100
AcDbEntity
  8
FORMAT
 62
     0
100
AcDbLine
 10
5.0
 20
0.0
 30
0.0
 11
166.1388553639
 21
0.0
 31
0.0
  0
ENDBLK
  5
8A
330
88
100
AcDbEntity
  8
0
100
AcDbBlockEnd
  0
ENDSEC
  0
SECTION
  2
ENTITIES
  0
CIRCLE
  5
83
330
1F
100
AcDbEntity
  8
0
  6
Continuous
 62
     7
370
    25
100
AcDbCircle
 10
144.3780641015
 20
109.5012506419
 30
0.0
 40
99.1
  0
CIRCLE
  5
84
330
1F
100
AcDbEntity
  8
0
  6
Continuous
 62
     7
370
    25
100
AcDbCircle
 10
144.3780641015
 20
109.5012506419
 30
0.0
 40
112.5
  0
CIRCLE
  5
85
330
1F
100
AcDbEntity
  8
0
  6
Continuous
 62
     7
370
    25
100
AcDbCircle
 10
144.3780641015
 20
109.5012506419
 30
0.0
 40
125.0
  0
CIRCLE
  5
86
330
1F
100
AcDbEntity
  8
0
  6
Continuous
 62
     7
370
    25
100
AcDbCircle
 10
144.3780641015
 20
109.5012506419
 30
0.0
 40
140.0
  0
CIRCLE
  5
87
330
1F
100
AcDbEntity
  8
0
  6
Continuous
 62
     7
370
    25
100
AcDbCircle
 10
144.3780641015
 20
109.5012506419
 30
0.0
 40
157.5
  0
INSERT
  5
93
330
1F
100
AcDbEntity
  8
FORMAT
 62
     7
100
AcDbBlockReference
  2
SW_CENTERMARKSYMBOL_0
 10
144.3780641015
 20
109.5012506419
 30
0.0
  0
LINE
  5
94
330
1F
100
AcDbEntity
  8
0
  6
Continuous
 62
     7
370
    25
100
AcDbLine
 10
473.6851007551
 20
-47.9987493581
 30
0.0
 11
509.6851007551
 21
-47.9987493581
 31
0.0
  0
LINE
  5
95
330
1F
100
AcDbEntity
  8
0
  6
Continuous
 62
     7
370
    25
100
AcDbLine
 10
509.6851007551
 20
267.0012506419
 30
0.0
 11
473.6851007551
 21
267.0012506419
 31
0.0
  0
LINE
  5
96
330
1F
100
AcDbEntity
  8
0
  6
Continuous
 62
     7
370
    25
100
AcDbLine
 10
509.6851007551
 20
-47.9987493581
 30
0.0
 11
520.1851007551
 21
-30.4987493581
 31
0.0
  0
LINE
  5
97
330
1F
100
AcDbEntity
  8
0
  6
Continuous
 62
     7
370
    25
100
AcDbLine
 10
520.1851007551
 20
249.5012506419
 30
0.0
 11
509.6851007551
 21
267.0012506419
 31
0.0
  0
LINE
  5
98
330
1F
100
AcDbEntity
  8
0
  6
Continuous
 62
     7
370
    25
100
AcDbLine
 10
520.1851007551
 20
-30.4987493581
 30
0.0
 11
556.1851007551
 21
-30.4987493581
 31
0.0
  0
LINE
  5
99
330
1F
100
AcDbEntity
  8
0
  6
Continuous
 62
     7
370
    25
100
AcDbLine
 10
556.1851007551
 20
249.5012506419
 30
0.0
 11
520.1851007551
 21
249.5012506419
 31
0.0
  0
LINE
  5
9A
330
1F
100
AcDbEntity
  8
0
  6
Continuous
 62
     7
370
    25
100
AcDbLine
 10
556.1851007551
 20
-30.4987493581
 30
0.0
 11
565.1851007551
 21
-15.4987493581
 31
0.0
  0
LINE
  5
9B
330
1F
100
AcDbEntity
  8
0
  6
Continuous
 62
     7
370
    25
100
AcDbLine
 10
565.1851007551
 20
234.5012506419
 30
0.0
 11
556.1851007551
 21
249.5012506419
 31
0.0
  0
LINE
  5
9C
330
1F
100
AcDbEntity
  8
0
  6
Continuous
 62
     7
370
    25
100
AcDbLine
 10
565.1851007551
 20
-15.4987493581
 30
0.0
 11
601.1851007551
 21
-15.4987493581
 31
0.0
  0
LINE
  5
9D
330
1F
100
AcDbEntity
  8
0
  6
Continuous
 62
     7
370
    25
100
AcDbLine
 10
601.1851007551
 20
234.5012506419
 30
0.0
 11
565.1851007551
 21
234.5012506419
 31
0.0
  0
LINE
  5
9E
330
1F
100
AcDbEntity
  8
0
  6
Continuous
 62
     7
370
    25
100
AcDbLine
 10
601.1851007551
 20
-15.4987493581
 30
0.0
 11
608.6851007551
 21
-2.9987493581
 31
0.0
  0
LINE
  5
9F
330
1F
100
AcDbEntity
  8
0
  6
Continuous
 62
     7
370
    25
100
AcDbLine
 10
608.6851007551
 20
222.0012506419
 30
0.0
 11
601.1851007551
 21
234.5012506419
 31
0.0
  0
LINE
  5
A0
330
1F
100
AcDbEntity
  8
0
  6
Continuous
 62
     7
370
    25
100
AcDbLine
 10
608.6851007551
 20
-2.9987493581
 30
0.0
 11
644.6851007551
 21
-2.9987493581
 31
0.0
  0
LINE
  5
A1
330
1F
100
AcDbEntity
  8
0
  6
Continuous
 62
     7
370
    25
100
AcDbLine
 10
644.6851007551
 20
222.0012506419
 30
0.0
 11
608.6851007551
 21
222.0012506419
 31
0.0
  0
LINE
  5
A2
330
1F
100
AcDbEntity
  8
0
  6
Continuous
 62
     7
370
    25
100
AcDbLine
 10
509.6851007551
 20
109.5012506419
 30
0.0
 11
509.6851007551
 21
267.0012506419
 31
0.0
  0
LINE
  5
A3
330
1F
100
AcDbEntity
  8
0
  6
Continuous
 62
     7
370
    25
100
AcDbLine
 10
509.6851007551
 20
-47.9987493581
 30
0.0
 11
509.6851007551
 21
109.5012506419
 31
0.0
  0
LINE
  5
A4
330
1F
100
AcDbEntity
  8
0
  6
Continuous
 62
     7
370
    25
100
AcDbLine
 10
473.6851007551
 20
109.5012506419
 30
0.0
 11
473.6851007551
 21
267.0012506419
 31
0.0
  0
LINE
  5
A5
330
1F
100
AcDbEntity
  8
0
  6
Continuous
 62
     7
370
    25
100
AcDbLine
 10
473.6851007551
 20
-47.9987493581
 30
0.0
 11
473.6851007551
 21
109.5012506419
 31
0.0
  0
LINE
  5
A6
330
1F
100
AcDbEntity
  8
0
  6
Continuous
 62
     7
370
    25
100
AcDbLine
 10
520.1851007551
 20
109.5012506419
 30
0.0
 11
520.1851007551
 21
249.5012506419
 31
0.0
  0
LINE
  5
A7
330
1F
100
AcDbEntity
  8
0
  6
Continuous
 62
     7
370
    25
100
AcDbLine
 10
520.1851007551
 20
-30.4987493581
 30
0.0
 11
520.1851007551
 21
109.5012506419
 31
0.0
  0
LINE
  5
A8
330
1F
100
AcDbEntity
  8
0
  6
Continuous
 62
     7
370
    25
100
AcDbLine
 10
556.1851007551
 20
109.5012506419
 30
0.0
 11
556.1851007551
 21
249.5012506419
 31
0.0
  0
LINE
  5
A9
330
1F
100
AcDbEntity
  8
0
  6
Continuous
 62
     7
370
    25
100
AcDbLine
 10
556.1851007551
 20
-30.4987493581
 30
0.0
 11
556.1851007551
 21
109.5012506419
 31
0.0
  0
LINE
  5
AA
330
1F
100
AcDbEntity
  8
0
  6
Continuous
 62
     7
370
    25
100
AcDbLine
 10
565.1851007551
 20
109.5012506419
 30
0.0
 11
565.1851007551
 21
234.5012506419
 31
0.0
  0
LINE
  5
AB
330
1F
100
AcDbEntity
  8
0
  6
Continuous
 62
     7
370
    25
100
AcDbLine
 10
565.1851007551
 20
-15.4987493581
 30
0.0
 11
565.1851007551
 21
109.5012506419
 31
0.0
  0
LINE
  5
AC
330
1F
100
AcDbEntity
  8
0
  6
Continuous
 62
     7
370
    25
100
AcDbLine
 10
601.1851007551
 20
109.5012506419
 30
0.0
 11
601.1851007551
 21
234.5012506419
 31
0.0
  0
LINE
  5
AD
330
1F
100
AcDbEntity
  8
0
  6
Continuous
 62
     7
370
    25
100
AcDbLine
 10
601.1851007551
 20
-15.4987493581
 30
0.0
 11
601.1851007551
 21
109.5012506419
 31
0.0
  0
LINE
  5
AE
330
1F
100
AcDbEntity
  8
0
  6
Continuous
 62
     7
370
    25
100
AcDbLine
 10
608.6851007551
 20
109.5012506419
 30
0.0
 11
608.6851007551
 21
222.0012506419
 31
0.0
  0
LINE
  5
AF
330
1F
100
AcDbEntity
  8
0
  6
Continuous
 62
     7
370
    25
100
AcDbLine
 10
608.6851007551
 20
-2.9987493581
 30
0.0
 11
608.6851007551
 21
109.5012506419
 31
0.0
  0
LINE
  5
B0
330
1F
100
AcDbEntity
  8
0
  6
Continuous
 62
     7
370
    25
100
AcDbLine
 10
644.6851007551
 20
109.5012506419
 30
0.0
 11
644.6851007551
 21
222.0012506419
 31
0.0
  0
LINE
  5
B1
330
1F
100
AcDbEntity
  8
0
  6
Continuous
 62
     7
370
    25
100
AcDbLine
 10
644.6851007551
 20
-2.9987493581
 30
0.0
 11
644.6851007551
 21
109.5012506419
 31
0.0
  0
LINE
  5
B2
330
1F
100
AcDbEntity
  8
0
  6
Continuous
 62
     7
370
    25
100
AcDbLine
 10
-160.230323756
 20
267.0012506419
 30
0.0
 11
-196.230323756
 21
267.0012506419
 31
0.0
  0
LINE
  5
B3
330
1F
100
AcDbEntity
  8
0
  6
Continuous
 62
     7
370
    25
100
AcDbLine
 10
-196.230323756
 20
-47.9987493581
 30
0.0
 11
-160.230323756
 21
-47.9987493581
 31
0.0
  0
LINE
  5
B4
330
1F
100
AcDbEntity
  8
0
  6
Continuous
 62
     7
370
    25
100
AcDbLine
 10
-196.230323756
 20
267.0012506419
 30
0.0
 11
-206.730323756
 21
249.5012506419
 31
0.0
  0
LINE
  5
B5
330
1F
100
AcDbEntity
  8
0
  6
Continuous
 62
     7
370
    25
100
AcDbLine
 10
-206.730323756
 20
-30.4987493581
 30
0.0
 11
-196.230323756
 21
-47.9987493581
 31
0.0
  0
LINE
  5
B6
330
1F
100
AcDbEntity
  8
0
  6
Continuous
 62
     7
370
    25
100
AcDbLine
 10
-206.730323756
 20
249.5012506419
 30
0.0
 11
-242.730323756
 21
249.5012506419
 31
0.0
  0
LINE
  5
B7
330
1F
100
AcDbEntity
  8
0
  6
Continuous
 62
     7
370
    25
100
AcDbLine
 10
-242.730323756
 20
-30.4987493581
 30
0.0
 11
-206.730323756
 21
-30.4987493581
 31
0.0
  0
LINE
  5
B8
330
1F
100
AcDbEntity
  8
0
  6
Continuous
 62
     7
370
    25
100
AcDbLine
 10
-242.730323756
 20
249.5012506419
 30
0.0
 11
-251.730323756
 21
234.5012506419
 31
0.0
  0
LINE
  5
B9
330
1F
100
AcDbEntity
  8
0
  6
Continuous
 62
     7
370
    25
100
AcDbLine
 10
-251.730323756
 20
-15.4987493581
 30
0.0
 11
-242.730323756
 21
-30.4987493581
 31
0.0
  0
LINE
  5
BA
330
1F
100
AcDbEntity
  8
0
  6
Continuous
 62
     7
370
    25
100
AcDbLine
 10
-251.730323756
 20
234.5012506419
 30
0.0
 11
-287.730323756
 21
234.5012506419
 31
0.0
  0
LINE
  5
BB
330
1F
100
AcDbEntity
  8
0
  6
Continuous
 62
     7
370
    25
100
AcDbLine
 10
-287.730323756
 20
-15.4987493581
 30
0.0
 11
-251.730323756
 21
-15.4987493581
 31
0.0
  0
LINE
  5
BC
330
1F
100
AcDbEntity
  8
0
  6
Continuous
 62
     7
370
    25
100
AcDbLine
 10
-287.730323756
 20
234.5012506419
 30
0.0
 11
-295.230323756
 21
222.0012506419
 31
0.0
  0
LINE
  5
BD
330
1F
100
AcDbEntity
  8
0
  6
Continuous
 62
     7
370
    25
100
AcDbLine
 10
-295.230323756
 20
-2.9987493581
 30
0.0
 11
-287.730323756
 21
-15.4987493581
 31
0.0
  0
LINE
  5
BE
330
1F
100
AcDbEntity
  8
0
  6
Continuous
 62
     7
370
    25
100
AcDbLine
 10
-295.230323756
 20
222.0012506419
 30
0.0
 11
-331.230323756
 21
222.0012506419
 31
0.0
  0
LINE
  5
BF
330
1F
100
AcDbEntity
  8
0
  6
Continuous
 62
     7
370
    25
100
AcDbLine
 10
-331.230323756
 20
-2.9987493581
 30
0.0
 11
-295.230323756
 21
-2.9987493581
 31
0.0
  0
LINE
  5
C0
330
1F
100
AcDbEntity
  8
0
  6
Continuous
 62
     7
370
    25
100
AcDbLine
 10
-196.230323756
 20
267.0012506419
 30
0.0
 11
-196.230323756
 21
-47.9987493581
 31
0.0
  0
LINE
  5
C1
330
1F
100
AcDbEntity
  8
0
  6
Continuous
 62
     7
370
    25
100
AcDbLine
 10
-160.230323756
 20
267.0012506419
 30
0.0
 11
-160.230323756
 21
-47.9987493581
 31
0.0
  0
LINE
  5
C2
330
1F
100
AcDbEntity
  8
0
  6
Continuous
 62
     7
370
    25
100
AcDbLine
 10
-206.730323756
 20
249.5012506419
 30
0.0
 11
-206.730323756
 21
-30.4987493581
 31
0.0
  0
LINE
  5
C3
330
1F
100
AcDbEntity
  8
0
  6
Continuous
 62
     7
370
    25
100
AcDbLine
 10
-242.730323756
 20
249.5012506419
 30
0.0
 11
-242.730323756
 21
-30.4987493581
 31
0.0
  0
LINE
  5
C4
330
1F
100
AcDbEntity
  8
0
  6
Continuous
 62
     7
370
    25
100
AcDbLine
 10
-251.730323756
 20
234.5012506419
 30
0.0
 11
-251.730323756
 21
-15.4987493581
 31
0.0
  0
LINE
  5
C5
330
1F
100
AcDbEntity
  8
0
  6
Continuous
 62
     7
370
    25
100
AcDbLine
 10
-287.730323756
 20
234.5012506419
 30
0.0
 11
-287.730323756
 21
-15.4987493581
 31
0.0
  0
LINE
  5
C6
330
1F
100
AcDbEntity
  8
0
  6
Continuous
 62
     7
370
    25
100
AcDbLine
 10
-295.230323756
 20
222.0012506419
 30
0.0
 11
-295.230323756
 21
-2.9987493581
 31
0.0
  0
LINE
  5
C7
330
1F
100
AcDbEntity
  8
0
  6
Continuous
 62
     7
370
    25
100
AcDbLine
 10
-331.230323756
 20
222.0012506419
 30
0.0
 11
-331.230323756
 21
-2.9987493581
 31
0.0
  0
LINE
  5
C8
330
1F
100
AcDbEntity
  8
0
  6
Continuous
 62
     7
370
    25
100
AcDbLine
 10
301.8780641015
 20
392.0762706323
 30
0.0
 11
301.8780641015
 21
428.0762706323
 31
0.0
  0
LINE
  5
C9
330
1F
100
AcDbEntity
  8
0
  6
Continuous
 62
     7
370
    25
100
AcDbLine
 10
-13.1219358985
 20
428.0762706323
 30
0.0
 11
-13.1219358985
 21
392.0762706323
 31
0.0
  0
LINE
  5
CA
330
1F
100
AcDbEntity
  8
0
  6
Continuous
 62
     7
370
    25
100
AcDbLine
 10
301.8780641015
 20
428.0762706323
 30
0.0
 11
284.3780641015
 21
438.5762706323
 31
0.0
  0
LINE
  5
CB
330
1F
100
AcDbEntity
  8
0
  6
Continuous
 62
     7
370
    25
100
AcDbLine
 10
4.3780641015
 20
438.5762706323
 30
0.0
 11
-13.1219358985
 21
428.0762706323
 31
0.0
  0
LINE
  5
CC
330
1F
100
AcDbEntity
  8
0
  6
Continuous
 62
     7
370
    25
100
AcDbLine
 10
284.3780641015
 20
438.5762706323
 30
0.0
 11
284.3780641015
 21
474.5762706323
 31
0.0
  0
LINE
  5
CD
330
1F
100
AcDbEntity
  8
0
  6
Continuous
 62
     7
370
    25
100
AcDbLine
 10
4.3780641015
 20
474.5762706323
 30
0.0
 11
4.3780641015
 21
438.5762706323
 31
0.0
  0
LINE
  5
CE
330
1F
100
AcDbEntity
  8
0
  6
Continuous
 62
     7
370
    25
100
AcDbLine
 10
284.3780641015
 20
474.5762706323
 30
0.0
 11
269.3780641015
 21
483.5762706323
 31
0.0
  0
LINE
  5
CF
330
1F
100
AcDbEntity
  8
0
  6
Continuous
 62
     7
370
    25
100
AcDbLine
 10
19.3780641015
 20
483.5762706323
 30
0.0
 11
4.3780641015
 21
474.5762706323
 31
0.0
  0
LINE
  5
D0
330
1F
100
AcDbEntity
  8
0
  6
Continuous
 62
     7
370
    25
100
AcDbLine
 10
269.3780641015
 20
483.5762706323
 30
0.0
 11
269.3780641015
 21
519.5762706323
 31
0.0
  0
LINE
  5
D1
330
1F
100
AcDbEntity
  8
0
  6
Continuous
 62
     7
370
    25
100
AcDbLine
 10
19.3780641015
 20
519.5762706323
 30
0.0
 11
19.3780641015
 21
483.5762706323
 31
0.0
  0
LINE
  5
D2
330
1F
100
AcDbEntity
  8
0
  6
Continuous
 62
     7
370
    25
100
AcDbLine
 10
269.3780641015
 20
519.5762706323
 30
0.0
 11
256.8780641015
 21
527.0762706323
 31
0.0
  0
LINE
  5
D3
330
1F
100
AcDbEntity
  8
0
  6
Continuous
 62
     7
370
    25
100
AcDbLine
 10
31.8780641015
 20
527.0762706323
 30
0.0
 11
19.3780641015
 21
519.5762706323
 31
0.0
  0
LINE
  5
D4
330
1F
100
AcDbEntity
  8
0
  6
Continuous
 62
     7
370
    25
100
AcDbLine
 10
256.8780641015
 20
527.0762706323
 30
0.0
 11
256.8780641015
 21
563.0762706323
 31
0.0
  0
LINE
  5
D5
330
1F
100
AcDbEntity
  8
0
  6
Continuous
 62
     7
370
    25
100
AcDbLine
 10
31.8780641015
 20
563.0762706323
 30
0.0
 11
31.8780641015
 21
527.0762706323
 31
0.0
  0
LINE
  5
D6
330
1F
100
AcDbEntity
  8
0
  6
Continuous
 62
     7
370
    25
100
AcDbLine
 10
301.8780641015
 20
428.0762706323
 30
0.0
 11
-13.1219358985
 21
428.0762706323
 31
0.0
  0
LINE
  5
D7
330
1F
100
AcDbEntity
  8
0
  6
Continuous
 62
     7
370
    25
100
AcDbLine
 10
301.8780641015
 20
392.0762706323
 30
0.0
 11
-13.1219358985
 21
392.0762706323
 31
0.0
  0
LINE
  5
D8
330
1F
100
AcDbEntity
  8
0
  6
Continuous
 62
     7
370
    25
100
AcDbLine
 10
284.3780641015
 20
438.5762706323
 30
0.0
 11
4.3780641015
 21
438.5762706323
 31
0.0
  0
LINE
  5
D9
330
1F
100
AcDbEntity
  8
0
  6
Continuous
 62
     7
370
    25
100
AcDbLine
 10
284.3780641015
 20
474.5762706323
 30
0.0
 11
4.3780641015
 21
474.5762706323
 31
0.0
  0
LINE
  5
DA
330
1F
100
AcDbEntity
  8
0
  6
Continuous
 62
     7
370
    25
100
AcDbLine
 10
269.3780641015
 20
483.5762706323
 30
0.0
 11
19.3780641015
 21
483.5762706323
 31
0.0
  0
LINE
  5
DB
330
1F
100
AcDbEntity
  8
0
  6
Continuous
 62
     7
370
    25
100
AcDbLine
 10
269.3780641015
 20
519.5762706323
 30
0.0
 11
19.3780641015
 21
519.5762706323
 31
0.0
  0
LINE
  5
DC
330
1F
100
AcDbEntity
  8
0
  6
Continuous
 62
     7
370
    25
100
AcDbLine
 10
256.8780641015
 20
527.0762706323
 30
0.0
 11
31.8780641015
 21
527.0762706323
 31
0.0
  0
LINE
  5
DD
330
1F
100
AcDbEntity
  8
0
  6
Continuous
 62
     7
370
    25
100
AcDbLine
 10
256.8780641015
 20
563.0762706323
 30
0.0
 11
31.8780641015
 21
563.0762706323
 31
0.0
  0
LINE
  5
DE
330
1F
100
AcDbEntity
  8
0
  6
Continuous
 62
     7
370
    25
100
AcDbLine
 10
520.9374988881
 20
-131.3725944386
 30
0.0
 11
495.4816547654
 21
-116.6772484258
 31
0.0
  0
LINE
  5
DF
330
1F
100
AcDbEntity
  8
0
  6
Continuous
 62
     7
370
    25
100
AcDbLine
 10
382.9907973438
 20
-311.5382424614
 30
0.0
 11
408.4466414665
 21
-326.2335884742
 31
0.0
  0
LINE
  5
E0
330
1F
100
AcDbEntity
  8
0
  6
Continuous
 62
     7
370
    25
100
AcDbLine
 10
557.9461359487
 20
-138.303860091
 30
0.0
 11
532.490291826
 21
-123.6085140782
 31
0.0
  0
LINE
  5
E1
330
1F
100
AcDbEntity
  8
0
  6
Continuous
 62
     7
370
    25
100
AcDbLine
 10
407.5004502465
 20
-340.1207296733
 30
0.0
 11
432.9562943692
 21
-354.8160756861
 31
0.0
  0
LINE
  5
E2
330
1F
100
AcDbEntity
  8
0
  6
Continuous
 62
     7
370
    25
100
AcDbLine
 10
597.2653315968
 20
-143.6823096713
 30
0.0
 11
571.8094874741
 21
-128.9869636585
 31
0.0
  0
LINE
  5
E3
330
1F
100
AcDbEntity
  8
0
  6
Continuous
 62
     7
370
    25
100
AcDbLine
 10
431.8208649051
 20
-371.4806451251
 30
0.0
 11
457.2767090278
 21
-386.1759911379
 31
0.0
  0
LINE
  5
E4
330
1F
100
AcDbEntity
  8
0
  6
Continuous
 62
     7
370
    25
100
AcDbLine
 10
638.8950858326
 20
-147.5079431795
 30
0.0
 11
613.4392417099
 21
-132.8125971667
 31
0.0
  0
LINE
  5
E5
330
1F
100
AcDbEntity
  8
0
  6
Continuous
 62
     7
370
    25
100
AcDbLine
 10
455.9520413197
 20
-405.6179888166
 30
0.0
 11
481.4078854424
 21
-420.3133348294
 31
0.0
  0
LWPOLYLINE
  5
E6
330
1F
100
AcDbEntity
  8
0
  6
Continuous
 62
     7
370
    25
100
AcDbPolyline
 90
      117
 70
   128
 43
0.0
 10
359.6867131711
 20
-260.0307017336
 10
359.8033793849
 20
-254.9901060703
 10
360.153035824
 20
-249.8295953993
 10
360.7346568859
 20
-244.5643063876
 10
361.5465365759
 20
-239.209683035
 10
362.5862935108
 20
-233.7814313745
 10
363.8508779045
 20
-228.2954734034
 10
365.3365805131
 20
-222.7679003817
 10
367.0390435147
 20
-217.2149256334
 10
368.9532732922
 20
-211.6528369903
 10
371.0736550797
 20
-206.0979490167
 10
373.3939694322
 20
-200.566555156
 10
375.9074104678
 20
-195.0748799396
 10
378.6066058309
 20
-189.639031397
 10
381.4836383165
 20
-184.2749538086
 10
384.5300690926
 20
-178.9983809382
 10
387.7369624528
 20
-173.8247898831
 10
391.0949120263
 20
-168.7693556774
 10
394.5940683685
 20
-163.8469067806
 10
398.224167851
 20
-159.0718815834
 10
401.9745627664
 20
-154.4582860574
 10
405.8342525604
 20
-150.0196526733
 10
409.7919160977
 20
-145.7690007076
 10
413.8359448693
 20
-141.7187980547
 10
417.9544770421
 20
-137.880924657
 10
422.1354322515
 20
-134.2666376584
 10
426.3665470355
 20
-130.8865383853
 10
430.6354108055
 20
-127.7505412514
 10
434.9295022486
 20
-124.8678446766
 10
439.2362260546
 20
-122.2469041065
 10
443.5429498606
 20
-119.8954072114
 10
447.8370413037
 20
-117.820251337
 10
452.1059050737
 20
-116.0275232729
 10
456.3370198577
 20
-114.5224813995
 10
460.5179750671
 20
-113.3095402638
 10
464.6365072399
 20
-112.3922576312
 10
468.6805360115
 20
-111.7733240497
 10
472.6381995488
 20
-111.4545549581
 10
476.4978893428
 20
-111.4368853612
 10
480.2482842582
 20
-111.7203670868
 10
483.8783837407
 20
-112.3041686343
 10
487.3775400829
 20
-113.186577613
 10
490.7354896564
 20
-114.3650057655
 10
493.9423830166
 20
-115.835996559
 10
496.9888137927
 20
-117.5952353239
 10
499.8658462783
 20
-119.6375619099
 10
502.5650416414
 20
-121.9569858212
 10
505.078482677
 20
-124.5467037878
 10
507.3987970294
 20
-127.3991197208
 10
509.519178817
 20
-130.5058669927
 10
511.4334085944
 20
-133.8578329785
 10
513.1358715961
 20
-137.4451857845
 10
514.6215742047
 20
-141.2574030867
 10
515.8861585984
 20
-145.2833029951
 10
516.9259155333
 20
-149.5110768514
 10
517.7377952233
 20
-153.9283238666
 10
518.3194162852
 20
-158.522087494
 10
518.6690727243
 20
-163.2788934335
 10
518.7857389381
 20
-168.1847891536
 10
518.6690727243
 20
-173.2253848169
 10
518.3194162852
 20
-178.3858954879
 10
517.7377952233
 20
-183.6511844996
 10
516.9259155333
 20
-189.0058078522
 10
515.8861585984
 20
-194.4340595127
 10
514.6215742047
 20
-199.9200174838
 10
513.1358715961
 20
-205.4475905055
 10
511.4334085944
 20
-211.0005652538
 10
509.519178817
 20
-216.5626538969
 10
507.3987970294
 20
-222.1175418706
 10
505.078482677
 20
-227.6489357312
 10
502.5650416414
 20
-233.1406109477
 10
499.8658462783
 20
-238.5764594903
 10
496.9888137927
 20
-243.9405370786
 10
493.9423830166
 20
-249.217109949
 10
490.7354896564
 20
-254.3907010041
 10
487.3775400829
 20
-259.4461352098
 10
483.8783837407
 20
-264.3685841066
 10
480.2482842582
 20
-269.1436093038
 10
476.4978893428
 20
-273.7572048298
 10
472.6381995488
 20
-278.1958382139
 10
468.6805360115
 20
-282.4464901797
 10
464.6365072399
 20
-286.4966928325
 10
460.5179750671
 20
-290.3345662302
 10
456.3370198577
 20
-293.9488532288
 10
452.1059050737
 20
-297.3289525019
 10
447.8370413037
 20
-300.4649496358
 10
443.5429498606
 20
-303.3476462107
 10
439.2362260546
 20
-305.9685867808
 10
434.9295022486
 20
-308.3200836758
 10
430.6354108055
 20
-310.3952395502
 10
426.3665470355
 20
-312.1879676143
 10
422.1354322515
 20
-313.6930094878
 10
417.9544770421
 20
-314.9059506234
 10
413.8359448693
 20
-315.8232332561
 10
409.7919160977
 20
-316.4421668376
 10
405.8342525604
 20
-316.7609359291
 10
401.9745627664
 20
-316.7786055261
 10
398.224167851
 20
-316.4951238004
 10
394.5940683685
 20
-315.911322253
 10
391.0949120263
 20
-315.0289132742
 10
387.7369624527
 20
-313.8504851217
 10
384.5300690926
 20
-312.3794943282
 10
381.4836383165
 20
-310.6202555633
 10
378.6066058309
 20
-308.5779289773
 10
375.9074104678
 20
-306.2585050661
 10
373.3939694322
 20
-303.6687870994
 10
371.0736550797
 20
-300.8163711664
 10
368.9532732922
 20
-297.7096238945
 10
367.0390435147
 20
-294.3576579087
 10
365.3365805131
 20
-290.7703051027
 10
363.8508779045
 20
-286.9580878005
 10
362.5862935108
 20
-282.9321878921
 10
361.5465365759
 20
-278.7044140358
 10
360.7346568859
 20
-274.2871670207
 10
360.153035824
 20
-269.6934033932
 10
359.8033793849
 20
-264.9365974538
 10
359.6867131711
 20
-260.0307017336
  0
LWPOLYLINE
  5
E7
330
1F
100
AcDbEntity
  8
0
  6
Continuous
 62
     7
370
    25
100
AcDbPolyline
 90
       60
 70
   128
 43
0.0
 10
520.9374988881
 20
-131.3725944386
 10
522.4446579154
 20
-132.2905813367
 10
525.321690401
 20
-134.3329079227
 10
528.0208857641
 20
-136.652331834
 10
530.5343267997
 20
-139.2420498006
 10
532.8546411522
 20
-142.0944657336
 10
534.9750229397
 20
-145.2012130055
 10
536.8892527172
 20
-148.5531789913
 10
538.5917157188
 20
-152.1405317973
 10
540.0774183274
 20
-155.9527490996
 10
541.3420027211
 20
-159.9786490079
 10
542.381759656
 20
-164.2064228642
 10
543.193639346
 20
-168.6236698794
 10
543.7752604079
 20
-173.2174335068
 10
544.1249168471
 20
-177.9742394463
 10
544.2415830608
 20
-182.8801351664
 10
544.1249168471
 20
-187.9207308297
 10
543.7752604079
 20
-193.0812415007
 10
543.193639346
 20
-198.3465305124
 10
542.381759656
 20
-203.701153865
 10
541.3420027211
 20
-209.1294055255
 10
540.0774183274
 20
-214.6153634966
 10
538.5917157188
 20
-220.1429365183
 10
536.8892527172
 20
-225.6959112666
 10
534.9750229397
 20
-231.2579999097
 10
532.8546411522
 20
-236.8128878834
 10
530.5343267997
 20
-242.344281744
 10
528.0208857641
 20
-247.8359569605
 10
525.321690401
 20
-253.2718055031
 10
522.4446579154
 20
-258.6358830915
 10
519.3982271393
 20
-263.9124559619
 10
516.1913337792
 20
-269.0860470169
 10
512.8333842056
 20
-274.1414812226
 10
509.3342278634
 20
-279.0639301194
 10
505.7041283809
 20
-283.8389553167
 10
501.9537334655
 20
-288.4525508426
 10
498.0940436715
 20
-292.8911842267
 10
494.1363801342
 20
-297.1418361925
 10
490.0923513626
 20
-301.1920388453
 10
485.9738191898
 20
-305.029912243
 10
481.7928639804
 20
-308.6441992416
 10
477.5617491964
 20
-312.0242985147
 10
473.2928854264
 20
-315.1602956486
 10
468.9987939833
 20
-318.0429922235
 10
464.6920701773
 20
-320.6639327936
 10
460.3853463713
 20
-323.0154296886
 10
456.0912549282
 20
-325.090585563
 10
451.8223911582
 20
-326.8833136271
 10
447.5912763742
 20
-328.3883555006
 10
443.4103211648
 20
-329.6012966363
 10
439.291788992
 20
-330.5185792689
 10
435.2477602204
 20
-331.1375128504
 10
431.2900966831
 20
-331.4562819419
 10
427.4304068891
 20
-331.4739515389
 10
423.6800119737
 20
-331.1904698132
 10
420.0499124912
 20
-330.6066682658
 10
416.550756149
 20
-329.724259287
 10
413.1928065755
 20
-328.5458311345
 10
409.9859132153
 20
-327.0748403411
 10
408.4466414665
 20
-326.2335884742
  0
LWPOLYLINE
  5
E8
330
1F
100
AcDbEntity
  8
0
  6
Continuous
 62
     7
370
    25
100
AcDbPolyline
 90
      110
 70
   128
 43
0.0
 10
369.161944039
 20
-254.5607673844
 10
369.2783338979
 20
-249.8316616269
 10
369.6271168392
 20
-244.9838846124
 10
370.2071342409
 20
-240.0335401686
 10
371.0164593437
 20
-234.9970728421
 10
372.052403651
 20
-229.8912132706
 10
373.3115258599
 20
-224.7329226063
 10
374.789643293
 20
-219.5393361721
 10
376.481845793
 20
-214.3277065396
 10
378.3825120332
 20
-209.1153462185
 10
380.4853281916
 20
-203.9195701456
 10
382.7833089244
 20
-198.7576381664
 10
385.2688205707
 20
-193.6466976999
 10
387.9336065107
 20
-188.6037267763
 10
390.7688145935
 20
-183.645477638
 10
393.765026543
 20
-178.7884210897
 10
396.9122892445
 20
-174.0486917851
 10
400.2001478077
 20
-169.4420346282
 10
403.6176802972
 20
-164.9837524707
 10
407.1535340136
 20
-160.6886552777
 10
410.7959632066
 20
-156.5710109301
 10
414.5328680926
 20
-152.6444978284
 10
418.3518350495
 20
-148.9221594541
 10
422.2401778531
 20
-145.416361041
 10
426.1849798195
 20
-142.1387484989
 10
430.1731367135
 20
-139.100209727
 10
434.1914002787
 20
-136.3108384456
 10
438.2264222479
 20
-133.7799006655
 10
442.2647986838
 20
-131.5158039075
 10
446.293114506
 20
-129.5260692734
 10
450.2979880544
 20
-127.8173064615
 10
454.2661155418
 20
-126.3951918101
 10
458.184315248
 20
-125.2644494409
 10
462.0395713073
 20
-124.4288355664
 10
465.8190769469
 20
-123.8911260119
 10
469.5102770292
 20
-123.6531069945
 10
473.1009097587
 20
-123.7155691893
 10
476.5790474146
 20
-124.0783051033
 10
479.9331359733
 20
-124.7401097642
 10
483.15203349
 20
-125.6987847235
 10
486.2250471108
 20
-126.9511453594
 10
489.1419685936
 20
-128.4930314558
 10
491.8931082184
 20
-130.3193210222
 10
494.4693269762
 20
-132.4239473082
 10
496.8620669272
 20
-134.799918957
 10
499.0633796301
 20
-137.4393432298
 10
501.0659525454
 20
-140.3334522245
 10
502.8631333272
 20
-143.4726320021
 10
504.4489519218
 20
-146.8464545231
 10
505.8181403992
 20
-150.4437122883
 10
506.966150453
 20
-154.2524555693
 10
507.8891685093
 20
-158.2600321038
 10
508.5841283949
 20
-162.4531291256
 10
509.0487215229
 20
-166.8178175882
 10
509.2814045618
 20
-171.3395984353
 10
509.2814045618
 20
-176.0034507658
 10
509.0487215229
 20
-180.7938817313
 10
508.5841283949
 20
-185.6949780017
 10
507.8891685093
 20
-190.6904586282
 10
506.966150453
 20
-195.7637291266
 10
505.8181403992
 20
-200.8979366024
 10
504.4489519218
 20
-206.0760257347
 10
502.8631333272
 20
-211.2807954321
 10
501.0659525454
 20
-216.4949559732
 10
499.0633796301
 20
-221.701186441
 10
496.8620669272
 20
-226.8821922614
 10
494.4693269762
 20
-232.0207626542
 10
491.8931082184
 20
-237.0998278053
 10
489.1419685936
 20
-242.1025155709
 10
486.2250471108
 20
-247.0122075255
 10
483.15203349
 20
-251.8125941662
 10
479.9331359733
 20
-256.4877290912
 10
476.5790474146
 20
-261.0220819725
 10
473.1009097587
 20
-265.4005901458
 10
469.5102770292
 20
-269.6087086473
 10
465.8190769469
 20
-273.6324585306
 10
462.0395713073
 20
-277.4584733032
 10
458.184315248
 20
-281.0740433287
 10
454.2661155418
 20
-284.4671580472
 10
450.2979880544
 20
-287.6265458727
 10
446.2931145059
 20
-290.5417116367
 10
442.2647986838
 20
-293.2029714517
 10
438.2264222479
 20
-295.6014848801
 10
434.1914002787
 20
-297.7292843017
 10
430.1731367134
 20
-299.5793013806
 10
426.1849798195
 20
-301.1453905462
 10
422.2401778531
 20
-302.4223494077
 10
418.3518350495
 20
-303.4059360364
 10
414.5328680926
 20
-304.0928830562
 10
410.7959632066
 20
-304.4809084983
 10
407.1535340136
 20
-304.5687233812
 10
403.6176802972
 20
-304.3560359927
 10
400.2001478077
 20
-303.8435528589
 10
396.9122892445
 20
-303.0329763972
 10
393.765026543
 20
-301.9269992611
 10
390.7688145935
 20
-300.5292953954
 10
387.9336065107
 20
-298.8445078319
 10
385.2688205707
 20
-296.8782332653
 10
382.7833089244
 20
-294.6370034621
 10
380.4853281916
 20
-292.1282635622
 10
378.3825120332
 20
-289.3603473473
 10
376.481845793
 20
-286.3424495568
 10
374.789643293
 20
-283.0845953435
 10
373.3115258599
 20
-279.5976069716
 10
372.052403651
 20
-275.8930678657
 10
371.0164593437
 20
-271.9832841322
 10
370.2071342409
 20
-267.8812436795
 10
369.6271168392
 20
-263.6005730734
 10
369.2783338979
 20
-259.1554922713
 10
369.161944039
 20
-254.5607673844
  0
LWPOLYLINE
  5
E9
330
1F
100
AcDbEntity
  8
0
  6
Continuous
 62
     7
370
    25
100
AcDbPolyline
 90
       81
 70
   128
 43
0.0
 10
498.9954675534
 20
-118.7057293709
 10
501.9868311237
 20
-118.2488662234
 10
506.1522719505
 20
-117.85463179
 10
510.2233835512
 20
-117.7578364033
 10
514.1895448604
 20
-117.9587325913
 10
518.0404086161
 20
-118.4567962389
 10
521.7659283544
 20
-119.2507279548
 10
525.3563846198
 20
-120.3384564619
 10
528.8024103218
 20
-121.7171440007
 10
532.0950151728
 20
-123.3831937328
 10
535.2256091427
 20
-125.3322591246
 10
538.1860248692
 20
-127.5592552872
 10
540.9685389658
 20
-130.0583722418
 10
543.5658921709
 20
-132.8230900776
 10
545.9713082865
 20
-135.8461959614
 10
548.1785118567
 20
-139.1198029552
 10
550.1817445392
 20
-142.6353705921
 10
551.9757801289
 20
-146.3837271576
 10
553.5559381916
 20
-150.3550936173
 10
554.9180962755
 20
-154.5391091296
 10
556.0587006655
 20
-158.9248580758
 10
556.9747756551
 20
-163.5008985375
 10
557.6639313092
 20
-168.2552921478
 10
558.1243696995
 20
-173.1756352365
 10
558.3548895947
 20
-178.2490911903
 10
558.3548895947
 20
-183.462423942
 10
558.1243696995
 20
-188.8020325016
 10
557.6639313092
 20
-194.25398644
 10
556.9747756551
 20
-199.804062232
 10
556.0587006655
 20
-205.4377803634
 10
554.9180962755
 20
-211.140443107
 10
553.5559381916
 20
-216.8971728668
 10
551.9757801289
 20
-222.692950992
 10
550.1817445392
 20
-228.5126569594
 10
548.1785118567
 20
-234.3411078205
 10
545.9713082865
 20
-240.1630978125
 10
543.5658921709
 20
-245.9634380284
 10
540.9685389658
 20
-251.7269960426
 10
538.1860248692
 20
-257.4387353906
 10
535.2256091427
 20
-263.0837547963
 10
532.0950151728
 20
-268.6473270489
 10
528.8024103218
 20
-274.1149374234
 10
525.3563846198
 20
-279.4723215488
 10
521.7659283544
 20
-284.7055026214
 10
518.0404086161
 20
-289.8008278695
 10
514.1895448604
 20
-294.7450041713
 10
510.2233835512
 20
-299.5251327352
 10
506.1522719505
 20
-304.1287427516
 10
501.9868311237
 20
-308.5438239277
 10
497.7379282303
 20
-312.7588578208
 10
493.4166481727
 20
-316.7628478886
 10
489.0342646773
 20
-320.5453481783
 10
484.6022108823
 20
-324.0964905786
 10
480.1320495098
 20
-327.4070105642
 10
475.6354427006
 20
-330.4682713667
 10
471.1241215884
 20
-333.2722865061
 10
466.6098556949
 20
-335.811740627
 10
462.1044222244
 20
-338.0800085836
 10
457.6195753383
 20
-340.0711727238
 10
453.1670154902
 20
-341.7800383277
 10
448.7583589003
 20
-343.2021471601
 10
444.4051072502
 20
-344.3337891013
 10
440.1186176764
 20
-345.1720118268
 10
435.9100731409
 20
-345.7146285092
 10
431.7904532558
 20
-345.9602235234
 10
427.7705056391
 20
-345.9081561403
 10
423.8607178749
 20
-345.5585621976
 10
420.0712901533
 20
-344.9123537459
 10
416.4121086584
 20
-343.9712166695
 10
412.8927197771
 20
-342.7376062873
 10
409.522305193
 20
-341.2147409482
 10
406.3096579329
 20
-339.4065936338
 10
403.2631594268
 20
-337.3178815941
 10
400.3907576414
 20
-334.9540540403
 10
397.699946345
 20
-332.3212779285
 10
395.197745557
 20
-329.4264218711
 10
392.8906832337
 20
-326.2770382169
 10
390.7847782371
 20
-322.8813433484
 10
388.885524633
 20
-319.2481962457
 10
387.1978773571
 20
-315.3870753748
 10
386.5046101318
 20
-313.5667234065
  0
LWPOLYLINE
  5
EA
330
1F
100
AcDbEntity
  8
0
  6
Continuous
 62
     7
370
    25
100
AcDbPolyline
 90
       63
 70
   128
 43
0.0
 10
557.9461359487
 20
-138.303860091
 10
560.6814532654
 20
-140.0276051374
 10
563.6418689919
 20
-142.2546013
 10
566.4243830885
 20
-144.7537182546
 10
569.0217362936
 20
-147.5184360904
 10
571.4271524092
 20
-150.5415419742
 10
573.6343559794
 20
-153.815148968
 10
575.6375886619
 20
-157.330716605
 10
577.4316242516
 20
-161.0790731704
 10
579.0117823143
 20
-165.0504396301
 10
580.3739403982
 20
-169.2344551424
 10
581.5145447882
 20
-173.6202040886
 10
582.4306197778
 20
-178.1962445503
 10
583.119775432
 20
-182.9506381606
 10
583.5802138222
 20
-187.8709812493
 10
583.8107337174
 20
-192.9444372031
 10
583.8107337174
 20
-198.1577699548
 10
583.5802138222
 20
-203.4973785144
 10
583.119775432
 20
-208.9493324528
 10
582.4306197778
 20
-214.4994082448
 10
581.5145447882
 20
-220.1331263763
 10
580.3739403982
 20
-225.8357891198
 10
579.0117823143
 20
-231.5925188796
 10
577.4316242516
 20
-237.3882970048
 10
575.6375886619
 20
-243.2080029722
 10
573.6343559794
 20
-249.0364538333
 10
571.4271524092
 20
-254.8584438253
 10
569.0217362936
 20
-260.6587840412
 10
566.4243830885
 20
-266.4223420554
 10
563.6418689919
 20
-272.1340814034
 10
560.6814532654
 20
-277.7791008092
 10
557.5508592955
 20
-283.3426730617
 10
554.2582544445
 20
-288.8102834362
 10
550.8122287425
 20
-294.1676675616
 10
547.2217724771
 20
-299.4008486343
 10
543.4962527388
 20
-304.4961738824
 10
539.6453889831
 20
-309.4403501841
 10
535.6792276739
 20
-314.220478748
 10
531.6081160732
 20
-318.8240887644
 10
527.4426752464
 20
-323.2391699405
 10
523.193772353
 20
-327.4542038336
 10
518.8724922955
 20
-331.4581939014
 10
514.4901088001
 20
-335.2406941911
 10
510.058055005
 20
-338.7918365914
 10
505.5878936325
 20
-342.1023565771
 10
501.0912868233
 20
-345.1636173795
 10
496.5799657112
 20
-347.9676325189
 10
492.0656998176
 20
-350.5070866398
 10
487.5602663471
 20
-352.7753545964
 10
483.0754194611
 20
-354.7665187366
 10
478.6228596129
 20
-356.4753843405
 10
474.214203023
 20
-357.8974931729
 10
469.8609513729
 20
-359.0291351141
 10
465.5744617992
 20
-359.8673578396
 10
461.3659172637
 20
-360.409974522
 10
457.2462973786
 20
-360.6555695363
 10
453.2263497618
 20
-360.6035021531
 10
449.3165619976
 20
-360.2539082104
 10
445.527134276
 20
-359.6076997587
 10
441.8679527812
 20
-358.6665626823
 10
438.3485638998
 20
-357.4329523001
 10
434.9781493157
 20
-355.910086961
 10
432.9562943692
 20
-354.8160756861
  0
LWPOLYLINE
  5
EB
330
1F
100
AcDbEntity
  8
0
  6
Continuous
 62
     7
370
    25
100
AcDbPolyline
 90
       86
 70
   128
 43
0.0
 10
532.7837347991
 20
-123.7779151007
 10
536.9192690274
 20
-123.0815938826
 10
541.3502529183
 20
-122.6069363107
 10
545.6889008057
 20
-122.4303572029
 10
549.9250795763
 20
-122.5522689678
 10
554.0488954384
 20
-122.9723868748
 10
558.0507170289
 20
-123.6897297191
 10
561.9211979081
 20
-124.7026221134
 10
565.6512983886
 20
-126.0086984003
 10
569.2323066477
 20
-127.6049081783
 10
572.6558590749
 20
-129.4875234255
 10
575.9139598048
 20
-131.6521472067
 10
578.9989993922
 20
-134.0937239427
 10
581.9037725841
 20
-136.8065512181
 10
584.6214951482
 20
-139.7842930989
 10
587.1458197175
 20
-143.019994931
 10
589.4708506151
 20
-146.506099583
 10
591.5911576234
 20
-150.2344650958
 10
593.5017886674
 20
-154.196383699
 10
595.1982813795
 20
-158.3826021482
 10
596.6766735226
 20
-162.7833433361
 10
597.9335122431
 20
-167.3883291279
 10
598.9658621362
 20
-172.1868043659
 10
599.7713121007
 20
-177.1675619888
 10
600.347980971
 20
-182.3189692063
 10
600.6945219101
 20
-187.6289946683
 10
600.8101255557
 20
-193.0852365642
 10
600.6945219101
 20
-198.6749515882
 10
600.347980971
 20
-204.385084702
 10
599.7713121007
 20
-210.202299625
 10
598.9658621362
 20
-216.1130099823
 10
597.9335122431
 20
-222.103411036
 10
596.6766735226
 20
-228.1595119267
 10
595.1982813795
 20
-234.2671683503
 10
593.5017886674
 20
-240.4121155922
 10
591.5911576234
 20
-246.5800018434
 10
589.4708506151
 20
-252.7564217198
 10
587.1458197175
 20
-258.9269499064
 10
584.6214951482
 20
-265.077174849
 10
581.9037725841
 20
-271.192732412
 10
578.9989993922
 20
-277.2593394276
 10
575.9139598048
 20
-283.2628270538
 10
572.6558590749
 20
-289.1891738672
 10
569.2323066477
 20
-295.0245386101
 10
565.6512983886
 20
-300.7552925179
 10
561.9211979081
 20
-306.3680511493
 10
558.0507170289
 20
-311.8497056463
 10
554.0488954384
 20
-317.187453351
 10
549.9250795763
 20
-322.3688277062
 10
545.6889008057
 20
-327.3817273721
 10
541.3502529183
 20
-332.2144444891
 10
536.9192690274
 20
-336.8556920226
 10
532.406297901
 20
-341.2946301239
 10
527.8218797925
 20
-345.5208914474
 10
523.1767218226
 20
-349.5246053639
 10
518.4816729732
 20
-353.296421014
 10
513.7476987482
 20
-356.8275291476
 10
508.985855564
 20
-360.1096826979
 10
504.2072649257
 20
-363.1352160434
 10
499.4230874535
 20
-365.8970629106
 10
494.6444968152
 20
-368.3887728782
 10
489.882653631
 20
-370.6045264422
 10
485.148679406
 20
-372.5391486074
 10
480.4536305566
 20
-374.1881209741
 10
475.8084725867
 20
-375.547592291
 10
471.2240544782
 20
-376.6143874498
 10
466.7110833519
 20
-377.3860149009
 10
462.2800994609
 20
-377.8606724728
 10
457.9414515735
 20
-378.0372515807
 10
453.7052728029
 20
-377.9153398158
 10
449.5814569408
 20
-377.4952219087
 10
445.5796353503
 20
-376.7778790644
 10
441.7091544711
 20
-375.7649866702
 10
437.9790539907
 20
-374.4589103832
 10
434.3980457315
 20
-372.8627006052
 10
430.9744933043
 20
-370.9800853581
 10
427.7163925744
 20
-368.8154615769
 10
424.6313529871
 20
-366.3738848408
 10
421.7265797951
 20
-363.6610575655
 10
419.008857231
 20
-360.6833156846
 10
416.4845326617
 20
-357.4476138525
 10
414.1595017641
 20
-353.9615092005
 10
412.0391947558
 20
-350.2331436878
 10
410.1285637118
 20
-346.2712250845
 10
408.4320709997
 20
-342.0850066354
 10
407.7938932196
 20
-340.2901306959
  0
LWPOLYLINE
  5
EC
330
1F
100
AcDbEntity
  8
0
  6
Continuous
 62
     7
370
    25
100
AcDbPolyline
 90
       37
 70
   128
 43
0.0
 10
399.2430700065
 20
-271.9262317712
 10
399.3594598654
 20
-267.1971260136
 10
399.7082428067
 20
-262.3493489991
 10
400.2882602085
 20
-257.3990045554
 10
401.0975853113
 20
-252.3625372288
 10
402.1335296185
 20
-247.2566776574
 10
403.3926518274
 20
-242.0983869931
 10
404.8707692605
 20
-236.9048005588
 10
406.5629717605
 20
-231.6931709264
 10
408.4636380007
 20
-226.4808106053
 10
410.5664541592
 20
-221.2850345323
 10
412.8644348919
 20
-216.1231025532
 10
415.3499465382
 20
-211.0121620867
 10
418.0147324782
 20
-205.9691911631
 10
420.849940561
 20
-201.0109420247
 10
423.8461525106
 20
-196.1538854765
 10
426.993415212
 20
-191.4141561719
 10
430.2812737752
 20
-186.8074990149
 10
433.6988062647
 20
-182.3492168575
 10
437.2346599811
 20
-178.0541196645
 10
440.8770891741
 20
-173.9364753169
 10
444.6139940602
 20
-170.0099622151
 10
448.4329610171
 20
-166.2876238408
 10
452.3213038206
 20
-162.7818254277
 10
456.266105787
 20
-159.5042128856
 10
460.254262681
 20
-156.4656741138
 10
464.2725262463
 20
-153.6763028323
 10
468.3075482154
 20
-151.1453650523
 10
472.3459246513
 20
-148.8812682943
 10
476.3742404735
 20
-146.8915336602
 10
480.3791140219
 20
-145.1827708483
 10
484.3472415094
 20
-143.7606561968
 10
488.2654412155
 20
-142.6299138276
 10
492.1206972748
 20
-141.7942999532
 10
495.9002029144
 20
-141.2565903987
 10
499.5914029968
 20
-141.0185713812
 10
501.4854582367
 20
-141.0138033548
  0
LWPOLYLINE
  5
ED
330
1F
100
AcDbEntity
  8
0
  6
Continuous
 62
     7
370
    25
100
AcDbPolyline
 90
       10
 70
   128
 43
0.0
 10
407.0681198401
 20
-304.5671519191
 10
406.5629717605
 20
-303.7079139435
 10
404.8707692605
 20
-300.4500597302
 10
403.3926518274
 20
-296.9630713583
 10
402.1335296185
 20
-293.2585322524
 10
401.0975853113
 20
-289.348748519
 10
400.2882602085
 20
-285.2467080663
 10
399.7082428067
 20
-280.9660374602
 10
399.3594598654
 20
-276.520956658
 10
399.2430700065
 20
-271.9262317712
  0
LWPOLYLINE
  5
EE
330
1F
100
AcDbEntity
  8
0
  6
Continuous
 62
     7
370
    25
100
AcDbPolyline
 90
       67
 70
   128
 43
0.0
 10
597.2653315968
 20
-143.6823096713
 10
598.1117031976
 20
-144.1828694383
 10
601.3698039275
 20
-146.3474932195
 10
604.4548435149
 20
-148.7890699555
 10
607.3596167068
 20
-151.5018972309
 10
610.0773392709
 20
-154.4796391117
 10
612.6016638402
 20
-157.7153409439
 10
614.9266947378
 20
-161.2014455958
 10
617.0470017461
 20
-164.9298111086
 10
618.9576327901
 20
-168.8917297118
 10
620.6541255022
 20
-173.077948161
 10
622.1325176453
 20
-177.4786893489
 10
623.3893563659
 20
-182.0836751408
 10
624.4217062589
 20
-186.8821503787
 10
625.2271562234
 20
-191.8629080016
 10
625.8038250937
 20
-197.0143152191
 10
626.1503660328
 20
-202.3243406811
 10
626.2659696784
 20
-207.780582577
 10
626.1503660328
 20
-213.370297601
 10
625.8038250937
 20
-219.0804307148
 10
625.2271562234
 20
-224.8976456379
 10
624.4217062589
 20
-230.8083559951
 10
623.3893563659
 20
-236.7987570488
 10
622.1325176453
 20
-242.8548579395
 10
620.6541255022
 20
-248.9625143631
 10
618.9576327901
 20
-255.107461605
 10
617.0470017461
 20
-261.2753478562
 10
614.9266947378
 20
-267.4517677326
 10
612.6016638402
 20
-273.6222959193
 10
610.0773392709
 20
-279.7725208618
 10
607.3596167068
 20
-285.8880784249
 10
604.4548435149
 20
-291.9546854404
 10
601.3698039275
 20
-297.9581730666
 10
598.1117031976
 20
-303.88451988
 10
594.6881507704
 20
-309.7198846229
 10
591.1071425113
 20
-315.4506385307
 10
587.3770420308
 20
-321.0633971621
 10
583.5065611516
 20
-326.5450516591
 10
579.5047395611
 20
-331.8827993638
 10
575.380923699
 20
-337.064173719
 10
571.1447449284
 20
-342.0770733849
 10
566.806097041
 20
-346.9097905019
 10
562.3751131501
 20
-351.5510380354
 10
557.8621420237
 20
-355.9899761367
 10
553.2777239152
 20
-360.2162374602
 10
548.6325659454
 20
-364.2199513767
 10
543.9375170959
 20
-367.9917670268
 10
539.203542871
 20
-371.5228751604
 10
534.4416996867
 20
-374.8050287108
 10
529.6631090485
 20
-377.8305620562
 10
524.8789315762
 20
-380.5924089234
 10
520.100340938
 20
-383.084118891
 10
515.3384977537
 20
-385.299872455
 10
510.6045235287
 20
-387.2344946202
 10
505.9094746793
 20
-388.8834669869
 10
501.2643167094
 20
-390.2429383038
 10
496.6798986009
 20
-391.3097334626
 10
492.1669274746
 20
-392.0813609137
 10
487.7359435836
 20
-392.5560184856
 10
483.3972956962
 20
-392.7325975935
 10
479.1611169256
 20
-392.6106858286
 10
475.0373010635
 20
-392.1905679215
 10
471.035479473
 20
-391.4732250772
 10
467.1649985938
 20
-390.460332683
 10
463.4348981134
 20
-389.154256396
 10
459.8538898542
 20
-387.558046618
 10
457.2767090278
 20
-386.1759911379
  0
LWPOLYLINE
  5
EF
330
1F
100
AcDbEntity
  8
0
  6
Continuous
 62
     7
370
    25
100
AcDbPolyline
 90
       92
 70
   128
 43
0.0
 10
568.3737241446
 20
-127.189323062
 10
571.9909555467
 20
-126.5055329917
 10
576.7285599598
 20
-125.8563425416
 10
581.3790447307
 20
-125.5042854081
 10
585.9327710195
 20
-125.4500912835
 10
590.3803005332
 20
-125.6938724933
 10
594.7124150877
 20
-126.2351237637
 10
598.920135714
 20
-127.0727232688
 10
602.9947412686
 20
-128.2049349559
 10
606.9277865092
 20
-129.6294121431
 10
610.711119599
 20
-131.3432023841
 10
614.3368990024
 20
-133.3427535868
 10
617.7976097379
 20
-135.6239213761
 10
621.086078954
 20
-138.1819776833
 10
624.1954907962
 20
-141.0116205462
 10
627.1194005335
 20
-144.1069850977
 10
629.8517479166
 20
-147.4616557222
 10
632.3868697382
 20
-151.0686793525
 10
634.7195115712
 20
-154.9205798814
 10
636.8448386592
 20
-159.0093736567
 10
638.7584459372
 20
-163.326586029
 10
640.4563671621
 20
-167.8632689164
 10
641.9350831326
 20
-172.6100193508
 10
643.1915289843
 20
-177.5569989671
 10
644.2231005411
 20
-182.6939543945
 10
645.0276597136
 20
-188.0102385086
 10
645.6035389299
 20
-193.4948324987
 10
645.9495445924
 20
-199.1363687061
 10
646.0649595517
 20
-204.9231541856
 10
645.9495445924
 20
-210.8431949406
 10
645.6035389299
 20
-216.8842207827
 10
645.0276597136
 20
-223.0337107631
 10
644.2231005411
 20
-229.278919125
 10
643.1915289843
 20
-235.6069017203
 10
641.9350831326
 20
-242.0045428387
 10
640.4563671621
 20
-248.458582392
 10
638.7584459372
 20
-254.9556433978
 10
636.8448386592
 20
-261.4822597049
 10
634.7195115712
 20
-268.0249039043
 10
632.3868697382
 20
-274.5700153669
 10
629.8517479166
 20
-281.1040283497
 10
627.1194005335
 20
-287.613400113
 10
624.1954907962
 20
-294.0846389897
 10
621.086078954
 20
-300.5043323492
 10
617.7976097379
 20
-306.8591743965
 10
614.3368990024
 20
-313.1359937512
 10
610.711119599
 20
-319.3217807466
 10
606.9277865092
 20
-325.4037143945
 10
602.9947412686
 20
-331.3691889587
 10
598.920135714
 20
-337.2058400822
 10
594.7124150877
 20
-342.9015704143
 10
590.3803005332
 20
-348.444574684
 10
585.9327710195
 20
-353.8233641686
 10
581.3790447307
 20
-359.0267905055
 10
576.7285599598
 20
-364.0440687989
 10
571.9909555467
 20
-368.8647999736
 10
567.1760509001
 20
-373.4789923278
 10
562.293825645
 20
-377.8770822435
 10
557.354398939
 20
-382.0499540076
 10
552.368008498
 20
-385.9889587061
 10
547.3449893777
 20
-389.6859321503
 10
542.2957525524
 20
-393.1332117982
 10
537.2307633364
 20
-396.3236526363
 10
532.1605196932
 20
-399.2506419888
 10
527.0955304772
 20
-401.9081132232
 10
522.0462936518
 20
-404.2905583247
 10
517.0232745316
 20
-406.3930393118
 10
512.0368840906
 20
-408.2111984718
 10
507.0974573845
 20
-409.7412673921
 10
502.2152321295
 20
-410.9800747711
 10
497.4003274828
 20
-411.9250529916
 10
492.6627230698
 20
-412.5742434417
 10
488.0122382989
 20
-412.9263005752
 10
483.45851201
 20
-412.9804946998
 10
479.0109824963
 20
-412.73671349
 10
474.6788679419
 20
-412.1954622196
 10
470.4711473156
 20
-411.3578627144
 10
466.396541761
 20
-410.2256510274
 10
462.4634965204
 20
-408.8011738402
 10
458.6801634306
 20
-407.0873835992
 10
455.0543840272
 20
-405.0878323965
 10
451.5936732917
 20
-402.8066646072
 10
448.3052040755
 20
-400.2486083
 10
445.1957922333
 20
-397.4189654371
 10
442.271882496
 20
-394.3236008856
 10
439.539535113
 20
-390.9689302611
 10
437.0044132914
 20
-387.3619066307
 10
434.6717714584
 20
-383.5100061019
 10
432.5464443704
 20
-379.4212123266
 10
430.6328370923
 20
-375.1039999543
 10
428.9349158675
 20
-370.5673170669
 10
428.5459859634
 20
-369.4043143981
  0
LWPOLYLINE
  5
F0
330
1F
100
AcDbEntity
  8
0
  6
Continuous
 62
     7
370
    25
100
AcDbPolyline
 90
       71
 70
   128
 43
0.0
 10
638.8950858326
 20
-147.5079431795
 10
639.7927431251
 20
-148.0380995996
 10
643.2534538606
 20
-150.3192673889
 10
646.5419230768
 20
-152.8773236961
 10
649.6513349189
 20
-155.706966559
 10
652.5752446563
 20
-158.8023311105
 10
655.3075920393
 20
-162.157001735
 10
657.8427138609
 20
-165.7640253654
 10
660.1753556939
 20
-169.6159258942
 10
662.3006827819
 20
-173.7047196695
 10
664.2142900599
 20
-178.0219320418
 10
665.9122112848
 20
-182.5586149292
 10
667.3909272553
 20
-187.3053653636
 10
668.647373107
 20
-192.2523449799
 10
669.6789446638
 20
-197.3893004074
 10
670.4835038363
 20
-202.7055845214
 10
671.0593830526
 20
-208.1901785115
 10
671.4053887151
 20
-213.8317147189
 10
671.5208036744
 20
-219.6185001984
 10
671.4053887151
 20
-225.5385409534
 10
671.0593830526
 20
-231.5795667955
 10
670.4835038363
 20
-237.729056776
 10
669.6789446638
 20
-243.9742651378
 10
668.647373107
 20
-250.3022477331
 10
667.3909272553
 20
-256.6998888515
 10
665.9122112848
 20
-263.1539284048
 10
664.2142900599
 20
-269.6509894106
 10
662.3006827819
 20
-276.1776057177
 10
660.1753556939
 20
-282.7202499171
 10
657.8427138609
 20
-289.2653613797
 10
655.3075920393
 20
-295.7993743625
 10
652.5752446563
 20
-302.3087461258
 10
649.6513349189
 20
-308.7799850025
 10
646.5419230768
 20
-315.199678362
 10
643.2534538606
 20
-321.5545204094
 10
639.7927431251
 20
-327.831339764
 10
636.1669637217
 20
-334.0171267594
 10
632.3836306319
 20
-340.0990604073
 10
628.4505853913
 20
-346.0645349715
 10
624.3759798367
 20
-351.901186095
 10
620.1682592104
 20
-357.5969164271
 10
615.8361446559
 20
-363.1399206968
 10
611.3886151422
 20
-368.5187101814
 10
606.8348888534
 20
-373.7221365183
 10
602.1844040825
 20
-378.7394148117
 10
597.4467996694
 20
-383.5601459864
 10
592.6318950228
 20
-388.1743383407
 10
587.7496697678
 20
-392.5724282563
 10
582.8102430617
 20
-396.7453000204
 10
577.8238526207
 20
-400.6843047189
 10
572.8008335004
 20
-404.3812781631
 10
567.7515966751
 20
-407.828557811
 10
562.6866074591
 20
-411.0189986492
 10
557.6163638159
 20
-413.9459880016
 10
552.5513745999
 20
-416.603459236
 10
547.5021377745
 20
-418.9859043375
 10
542.4791186543
 20
-421.0883853246
 10
537.4927282133
 20
-422.9065444846
 10
532.5533015072
 20
-424.4366134049
 10
527.6710762522
 20
-425.675420784
 10
522.8561716056
 20
-426.6203990044
 10
518.1185671925
 20
-427.2695894545
 10
513.4680824216
 20
-427.621646588
 10
508.9143561328
 20
-427.6758407126
 10
504.4668266191
 20
-427.4320595028
 10
500.1347120646
 20
-426.8908082324
 10
495.9269914383
 20
-426.0532087273
 10
491.8523858837
 20
-424.9209970402
 10
487.9193406431
 20
-423.496519853
 10
484.1360075533
 20
-421.782729612
 10
481.4078854424
 20
-420.3133348294
  0
LWPOLYLINE
  5
F1
330
1F
100
AcDbEntity
  8
0
  6
Continuous
 62
     7
370
    25
100
AcDbPolyline
 90
       32
 70
   128
 43
0.0
 10
422.3316076081
 20
-294.3170908598
 10
422.4478842869
 20
-289.3360758113
 10
422.7963673081
 20
-284.2356758736
 10
423.3760166613
 20
-279.0311126448
 10
424.1851024451
 20
-273.7379185871
 10
425.2212100295
 20
-268.3718906721
 10
426.4812472622
 20
-262.9490432359
 10
427.9614536969
 20
-257.4855601868
 10
429.6574118158
 20
-251.9977467055
 10
431.5640602134
 20
-246.5019805843
 10
433.6757087013
 20
-241.0146633494
 10
435.9860552906
 20
-235.5521713121
 10
438.4882049991
 20
-230.1308066956
 10
441.1746904285
 20
-224.7667489826
 10
444.0374940504
 20
-219.4760066297
 10
447.0680721337
 20
-214.2743692914
 10
450.2573802423
 20
-209.1773606981
 10
453.5959002271
 20
-204.2001923266
 10
457.0736686326
 20
-199.3577180036
 10
460.6803064307
 20
-194.6643895758
 10
464.4050499969
 20
-190.1342137796
 10
468.2367832324
 20
-185.7807104404
 10
472.1640707391
 20
-181.6168721231
 10
476.1751919477
 20
-177.6551253578
 10
480.2581760959
 20
-173.9072935539
 10
484.4008379542
 20
-170.3845617145
 10
488.5908141916
 20
-167.0974430561
 10
492.815600272
 20
-164.0557476327
 10
497.0625877733
 20
-161.2685530588
 10
501.3191020156
 20
-158.7441774186
 10
505.5724398875
 20
-156.4901544411
 10
507.3174313109
 20
-155.6433842812
  0
LWPOLYLINE
  5
F2
330
1F
100
AcDbEntity
  8
0
  6
Continuous
 62
     7
370
    25
100
AcDbPolyline
 90
        3
 70
   128
 43
0.0
 10
422.6534825733
 20
-302.3015357801
 10
422.4478842869
 20
-299.1638557125
 10
422.3316076081
 20
-294.3170908598
  0
ARC
  5
F3
330
1F
100
AcDbEntity
  8
0
  6
Continuous
 62
     7
370
    25
100
AcDbCircle
 10
646.3293604666
 20
-333.6600671969
 30
0.0
 40
202.8336395906451
100
AcDbArc
 50
132.7290933173
 51
167.2762832154
  0
LINE
  5
F4
330
1F
100
AcDbEntity
  8
0
  6
Continuous
 62
     7
370
    25
100
AcDbLine
 10
-13.1219358985
 20
-237.8692129019
 30
0.0
 11
-13.1219358985
 21
-273.8692129019
 31
0.0
  0
LINE
  5
F5
330
1F
100
AcDbEntity
  8
0
  6
Continuous
 62
     7
370
    25
100
AcDbLine
 10
301.8780641015
 20
-273.8692129019
 30
0.0
 11
301.8780641015
 21
-237.8692129019
 31
0.0
  0
LINE
  5
F6
330
1F
100
AcDbEntity
  8
0
  6
Continuous
 62
     7
370
    25
100
AcDbLine
 10
-13.1219358985
 20
-273.8692129019
 30
0.0
 11
4.3780641015
 21
-284.3692129019
 31
0.0
  0
LINE
  5
F7
330
1F
100
AcDbEntity
  8
0
  6
Continuous
 62
     7
370
    25
100
AcDbLine
 10
284.3780641015
 20
-284.3692129019
 30
0.0
 11
301.8780641015
 21
-273.8692129019
 31
0.0
  0
LINE
  5
F8
330
1F
100
AcDbEntity
  8
0
  6
Continuous
 62
     7
370
    25
100
AcDbLine
 10
4.3780641015
 20
-284.3692129019
 30
0.0
 11
4.3780641015
 21
-320.3692129019
 31
0.0
  0
LINE
  5
F9
330
1F
100
AcDbEntity
  8
0
  6
Continuous
 62
     7
370
    25
100
AcDbLine
 10
284.3780641015
 20
-320.3692129019
 30
0.0
 11
284.3780641015
 21
-284.3692129019
 31
0.0
  0
LINE
  5
FA
330
1F
100
AcDbEntity
  8
0
  6
Continuous
 62
     7
370
    25
100
AcDbLine
 10
4.3780641015
 20
-320.3692129019
 30
0.0
 11
19.3780641015
 21
-329.3692129019
 31
0.0
  0
LINE
  5
FB
330
1F
100
AcDbEntity
  8
0
  6
Continuous
 62
     7
370
    25
100
AcDbLine
 10
269.3780641015
 20
-329.3692129019
 30
0.0
 11
284.3780641015
 21
-320.3692129019
 31
0.0
  0
LINE
  5
FC
330
1F
100
AcDbEntity
  8
0
  6
Continuous
 62
     7
370
    25
100
AcDbLine
 10
19.3780641015
 20
-329.3692129019
 30
0.0
 11
19.3780641015
 21
-365.3692129019
 31
0.0
  0
LINE
  5
FD
330
1F
100
AcDbEntity
  8
0
  6
Continuous
 62
     7
370
    25
100
AcDbLine
 10
269.3780641015
 20
-365.3692129019
 30
0.0
 11
269.3780641015
 21
-329.3692129019
 31
0.0
  0
LINE
  5
FE
330
1F
100
AcDbEntity
  8
0
  6
Continuous
 62
     7
370
    25
100
AcDbLine
 10
19.3780641015
 20
-365.3692129019
 30
0.0
 11
31.8780641015
 21
-372.8692129019
 31
0.0
  0
LINE
  5
FF
330
1F
100
AcDbEntity
  8
0
  6
Continuous
 62
     7
370
    25
100
AcDbLine
 10
256.8780641015
 20
-372.8692129019
 30
0.0
 11
269.3780641015
 21
-365.3692129019
 31
0.0
  0
LINE
  5
100
330
1F
100
AcDbEntity
  8
0
  6
Continuous
 62
     7
370
    25
100
AcDbLine
 10
31.8780641015
 20
-372.8692129019
 30
0.0
 11
31.8780641015
 21
-408.8692129019
 31
0.0
  0
LINE
  5
101
330
1F
100
AcDbEntity
  8
0
  6
Continuous
 62
     7
370
    25
100
AcDbLine
 10
256.8780641015
 20
-408.8692129019
 30
0.0
 11
256.8780641015
 21
-372.8692129019
 31
0.0
  0
LINE
  5
102
330
1F
100
AcDbEntity
  8
0
  6
Continuous
 62
     7
370
    25
100
AcDbLine
 10
-13.1219358985
 20
-273.8692129019
 30
0.0
 11
301.8780641015
 21
-273.8692129019
 31
0.0
  0
LINE
  5
103
330
1F
100
AcDbEntity
  8
0
  6
Continuous
 62
     7
370
    25
100
AcDbLine
 10
-13.1219358985
 20
-237.8692129019
 30
0.0
 11
301.8780641015
 21
-237.8692129019
 31
0.0
  0
LINE
  5
104
330
1F
100
AcDbEntity
  8
0
  6
Continuous
 62
     7
370
    25
100
AcDbLine
 10
4.3780641015
 20
-284.3692129019
 30
0.0
 11
284.3780641015
 21
-284.3692129019
 31
0.0
  0
LINE
  5
105
330
1F
100
AcDbEntity
  8
0
  6
Continuous
 62
     7
370
    25
100
AcDbLine
 10
4.3780641015
 20
-320.3692129019
 30
0.0
 11
284.3780641015
 21
-320.3692129019
 31
0.0
  0
LINE
  5
106
330
1F
100
AcDbEntity
  8
0
  6
Continuous
 62
     7
370
    25
100
AcDbLine
 10
19.3780641015
 20
-329.3692129019
 30
0.0
 11
269.3780641015
 21
-329.3692129019
 31
0.0
  0
LINE
  5
107
330
1F
100
AcDbEntity
  8
0
  6
Continuous
 62
     7
370
    25
100
AcDbLine
 10
19.3780641015
 20
-365.3692129019
 30
0.0
 11
269.3780641015
 21
-365.3692129019
 31
0.0
  0
LINE
  5
108
330
1F
100
AcDbEntity
  8
0
  6
Continuous
 62
     7
370
    25
100
AcDbLine
 10
31.8780641015
 20
-372.8692129019
 30
0.0
 11
256.8780641015
 21
-372.8692129019
 31
0.0
  0
LINE
  5
109
330
1F
100
AcDbEntity
  8
0
  6
Continuous
 62
     7
370
    25
100
AcDbLine
 10
31.8780641015
 20
-408.8692129019
 30
0.0
 11
256.8780641015
 21
-408.8692129019
 31
0.0
  0
ENDSEC
  0
SECTION
  2
OBJECTS
  0
DICTIONARY
  5
C
330
0
100
AcDbDictionary
281
     1
  3
ACAD_GROUP
350
D
  3
ACAD_LAYOUT
350
1A
  3
ACAD_MLINESTYLE
350
17
  3
ACAD_PLOTSETTINGS
350
19
  3
ACAD_PLOTSTYLENAME
350
E
  3
ACAD_SCALELIST
350
47
  0
DICTIONARY
  5
D
102
{ACAD_REACTORS
330
C
102
}
330
C
100
AcDbDictionary
281
     1
  0
DICTIONARY
  5
1A
102
{ACAD_REACTORS
330
C
102
}
330
C
100
AcDbDictionary
281
     1
  3
Layout1
350
1E
  3
Layout2
350
26
  3
Model
350
22
  0
DICTIONARY
  5
17
102
{ACAD_REACTORS
330
C
102
}
330
C
100
AcDbDictionary
281
     1
  3
Standard
350
18
  0
DICTIONARY
  5
19
102
{ACAD_REACTORS
330
C
102
}
330
C
100
AcDbDictionary
281
     1
  0
ACDBDICTIONARYWDFLT
  5
E
102
{ACAD_REACTORS
330
C
102
}
330
C
100
AcDbDictionary
281
     1
  3
Normal
350
F
100
AcDbDictionaryWithDefault
340
F
  0
DICTIONARY
  5
47
102
{ACAD_REACTORS
330
C
102
}
330
C
100
AcDbDictionary
281
     1
  3
A0
350
48
  3
A1
350
49
  3
A2
350
4A
  3
A3
350
4B
  3
A4
350
4C
  3
A5
350
4D
  3
A6
350
4E
  3
A7
350
4F
  3
A8
350
50
  3
A9
350
51
  3
B0
350
52
  3
B1
350
53
  3
B2
350
54
  3
B3
350
55
  3
B4
350
56
  3
B5
350
57
  3
B6
350
58
  3
B7
350
59
  3
B8
350
5A
  3
B9
350
5B
  3
C0
350
5C
  3
C1
350
5D
  3
C2
350
5E
  3
C3
350
5F
  3
C4
350
60
  3
C5
350
61
  3
C6
350
62
  3
C7
350
63
  3
C8
350
64
  3
C9
350
65
  3
D0
350
66
  3
D1
350
67
  3
D2
350
68
  0
LAYOUT
  5
1E
102
{ACAD_REACTORS
330
1A
102
}
330
1A
100
AcDbPlotSettings
  1

  2
none_device
  4

  6

 40
0.0
 41
0.0
 42
0.0
 43
0.0
 44
0.0
 45
0.0
 46
0.0
 47
0.0
 48
0.0
 49
0.0
140
0.0
141
0.0
142
1.0
143
1.0
 70
   688
 72
     1
 73
     0
 74
     5
  7

 75
    16
147
1.0
148
0.0
149
0.0
100
AcDbLayout
  1
Layout1
 70
     1
 71
     1
 10
0.0
 20
0.0
 11
420.0
 21
297.0
 12
0.0
 22
0.0
 32
0.0
 14
1.0000000000E+20
 24
1.0000000000E+20
 34
1.0000000000E+20
 15
-1.0000000000E+20
 25
-1.0000000000E+20
 35
-1.0000000000E+20
146
0.0
 13
0.0
 23
0.0
 33
0.0
 16
1.0
 26
0.0
 36
0.0
 17
0.0
 27
1.0
 37
0.0
 76
     0
330
1B
  0
LAYOUT
  5
26
102
{ACAD_REACTORS
330
1A
102
}
330
1A
100
AcDbPlotSettings
  1

  2
none_device
  4

  6

 40
0.0
 41
0.0
 42
0.0
 43
0.0
 44
0.0
 45
0.0
 46
0.0
 47
0.0
 48
0.0
 49
0.0
140
0.0
141
0.0
142
1.0
143
1.0
 70
   688
 72
     1
 73
     0
 74
     5
  7

 75
    16
147
1.0
148
0.0
149
0.0
100
AcDbLayout
  1
Layout2
 70
     1
 71
     2
 10
0.0
 20
0.0
 11
0.0
 21
0.0
 12
0.0
 22
0.0
 32
0.0
 14
0.0
 24
0.0
 34
0.0
 15
0.0
 25
0.0
 35
0.0
146
0.0
 13
0.0
 23
0.0
 33
0.0
 16
1.0
 26
0.0
 36
0.0
 17
0.0
 27
1.0
 37
0.0
 76
     0
330
23
  0
LAYOUT
  5
22
102
{ACAD_REACTORS
330
1A
102
}
330
1A
100
AcDbPlotSettings
  1

  2
none_device
  4
Letter_(8.50_x_11.00_Inches)
  6

 40
6.35
 41
6.35
 42
6.35000508
 43
6.35000508
 44
215.9
 45
279.4
 46
0.0
 47
0.0
 48
0.0
 49
0.0
140
0.0
141
0.0
142
1.0
143
1.0
 70
  1712
 72
     1
 73
     0
 74
     0
  7

 75
     0
147
1.0
148
0.0
149
0.0
100
AcDbLayout
  1
Model
 70
     1
 71
     0
 10
0.0
 20
0.0
 11
279.4
 21
215.9
 12
0.0
 22
0.0
 32
0.0
 14
0.0
 24
0.0
 34
0.0
 15
279.4
 25
215.9
 35
0.0
146
0.0
 13
0.0
 23
0.0
 33
0.0
 16
1.0
 26
0.0
 36
0.0
 17
0.0
 27
1.0
 37
0.0
 76
     0
330
1F
331
29
  0
MLINESTYLE
  5
18
102
{ACAD_REACTORS
330
17
102
}
330
17
100
AcDbMlineStyle
  2
Standard
 70
     0
  3

 62
   256
 51
90.0
 52
90.0
 71
     2
 49
0.5
 62
   256
  6
BYLAYER
 49
-0.5
 62
   256
  6
BYLAYER
  0
ACDBPLACEHOLDER
  5
F
102
{ACAD_REACTORS
330
E
102
}
330
E
  0
SCALE
  5
48
102
{ACAD_REACTORS
330
47
102
}
330
47
100
AcDbScale
 70
     0
300
1:1
140
1.0
141
1.0
290
     1
  0
SCALE
  5
49
102
{ACAD_REACTORS
330
47
102
}
330
47
100
AcDbScale
 70
     0
300
1:2
140
1.0
141
2.0
290
     0
  0
SCALE
  5
4A
102
{ACAD_REACTORS
330
47
102
}
330
47
100
AcDbScale
 70
     0
300
1:4
140
1.0
141
4.0
290
     0
  0
SCALE
  5
4B
102
{ACAD_REACTORS
330
47
102
}
330
47
100
AcDbScale
 70
     0
300
1:5
140
1.0
141
5.0
290
     0
  0
SCALE
  5
4C
102
{ACAD_REACTORS
330
47
102
}
330
47
100
AcDbScale
 70
     0
300
1:8
140
1.0
141
8.0
290
     0
  0
SCALE
  5
4D
102
{ACAD_REACTORS
330
47
102
}
330
47
100
AcDbScale
 70
     0
300
1:10
140
1.0
141
10.0
290
     0
  0
SCALE
  5
4E
102
{ACAD_REACTORS
330
47
102
}
330
47
100
AcDbScale
 70
     0
300
1:16
140
1.0
141
16.0
290
     0
  0
SCALE
  5
4F
102
{ACAD_REACTORS
330
47
102
}
330
47
100
AcDbScale
 70
     0
300
1:20
140
1.0
141
20.0
290
     0
  0
SCALE
  5
50
102
{ACAD_REACTORS
330
47
102
}
330
47
100
AcDbScale
 70
     0
300
1:30
140
1.0
141
30.0
290
     0
  0
SCALE
  5
51
102
{ACAD_REACTORS
330
47
102
}
330
47
100
AcDbScale
 70
     0
300
1:40
140
1.0
141
40.0
290
     0
  0
SCALE
  5
52
102
{ACAD_REACTORS
330
47
102
}
330
47
100
AcDbScale
 70
     0
300
1:50
140
1.0
141
50.0
290
     0
  0
SCALE
  5
53
102
{ACAD_REACTORS
330
47
102
}
330
47
100
AcDbScale
 70
     0
300
1:100
140
1.0
141
100.0
290
     0
  0
SCALE
  5
54
102
{ACAD_REACTORS
330
47
102
}
330
47
100
AcDbScale
 70
     0
300
2:1
140
2.0
141
1.0
290
     0
  0
SCALE
  5
55
102
{ACAD_REACTORS
330
47
102
}
330
47
100
AcDbScale
 70
     0
300
4:1
140
4.0
141
1.0
290
     0
  0
SCALE
  5
56
102
{ACAD_REACTORS
330
47
102
}
330
47
100
AcDbScale
 70
     0
300
8:1
140
8.0
141
1.0
290
     0
  0
SCALE
  5
57
102
{ACAD_REACTORS
330
47
102
}
330
47
100
AcDbScale
 70
     0
300
10:1
140
10.0
141
1.0
290
     0
  0
SCALE
  5
58
102
{ACAD_REACTORS
330
47
102
}
330
47
100
AcDbScale
 70
     0
300
100:1
140
100.0
141
1.0
290
     0
  0
SCALE
  5
59
102
{ACAD_REACTORS
330
47
102
}
330
47
100
AcDbScale
 70
     0
300
1/128" = 1'-0"
140
0.0078125
141
12.0
290
     0
  0
SCALE
  5
5A
102
{ACAD_REACTORS
330
47
102
}
330
47
100
AcDbScale
 70
     0
300
1/64" = 1'-0"
140
0.015625
141
12.0
290
     0
  0
SCALE
  5
5B
102
{ACAD_REACTORS
330
47
102
}
330
47
100
AcDbScale
 70
     0
300
1/32" = 1'-0"
140
0.03125
141
12.0
290
     0
  0
SCALE
  5
5C
102
{ACAD_REACTORS
330
47
102
}
330
47
100
AcDbScale
 70
     0
300
1/16" = 1'-0"
140
0.0625
141
12.0
290
     0
  0
SCALE
  5
5D
102
{ACAD_REACTORS
330
47
102
}
330
47
100
AcDbScale
 70
     0
300
3/32" = 1'-0"
140
0.09375
141
12.0
290
     0
  0
SCALE
  5
5E
102
{ACAD_REACTORS
330
47
102
}
330
47
100
AcDbScale
 70
     0
300
1/8" = 1'-0"
140
0.125
141
12.0
290
     0
  0
SCALE
  5
5F
102
{ACAD_REACTORS
330
47
102
}
330
47
100
AcDbScale
 70
     0
300
3/16" = 1'-0"
140
0.1875
141
12.0
290
     0
  0
SCALE
  5
60
102
{ACAD_REACTORS
330
47
102
}
330
47
100
AcDbScale
 70
     0
300
1/4" = 1'-0"
140
0.25
141
12.0
290
     0
  0
SCALE
  5
61
102
{ACAD_REACTORS
330
47
102
}
330
47
100
AcDbScale
 70
     0
300
3/8" = 1'-0"
140
0.375
141
12.0
290
     0
  0
SCALE
  5
62
102
{ACAD_REACTORS
330
47
102
}
330
47
100
AcDbScale
 70
     0
300
1/2" = 1'-0"
140
0.5
141
12.0
290
     0
  0
SCALE
  5
63
102
{ACAD_REACTORS
330
47
102
}
330
47
100
AcDbScale
 70
     0
300
3/4" = 1'-0"
140
0.75
141
12.0
290
     0
  0
SCALE
  5
64
102
{ACAD_REACTORS
330
47
102
}
330
47
100
AcDbScale
 70
     0
300
1" = 1'-0"
140
1.0
141
12.0
290
     0
  0
SCALE
  5
65
102
{ACAD_REACTORS
330
47
102
}
330
47
100
AcDbScale
 70
     0
300
1-1/2" = 1'-0"
140
1.5
141
12.0
290
     0
  0
SCALE
  5
66
102
{ACAD_REACTORS
330
47
102
}
330
47
100
AcDbScale
 70
     0
300
3" = 1'-0"
140
3.0
141
12.0
290
     0
  0
SCALE
  5
67
102
{ACAD_REACTORS
330
47
102
}
330
47
100
AcDbScale
 70
     0
300
6" = 1'-0"
140
6.0
141
12.0
290
     0
  0
SCALE
  5
68
102
{ACAD_REACTORS
330
47
102
}
330
47
100
AcDbScale
 70
     0
300
1'-0" = 1'-0"
140
12.0
141
12.0
290
     0
  0
ENDSEC
  0
EOF
